Junoon - Janey Tu Chords & Tabs

 

Janey Tu Chords & Tabs

Junoon Chords & Tabs

Version: 1 Type: Tab 0 ratings
1 star 2 stars 3 stars 4 stars 5 stars
comments

Janey Tu Tab

   
----------------------------------------------------------------------------
			     JANEY TU - Junoon
----------------------------------------------------------------------------
Tabbed by: Abhishek Ghosh
Email: mercurialmale@hotmail.com

Tuning: Standard (EADGBe)

Tone: I use sustain with mild crunch, a hint of chorus and reverb. To get
the smooth sound like the album, you can use the bridge pickup

Playing Notes: A technically simple, but very emotional solo. Listen to the
song to get the "feel". Make the bends very fluid. Some bends are slow,
others are quick. Play the notes at the end of the 2nd line and near the
end of the solo more stacatto to enhance the "vibe". Once you've learned it,
to perform, immerse yourself in the "mood" of the song, close your eyes and
play. I'll guarantee that by the time you hit the last bend, you (and your
audience) will have the goosebumps.

e|-------------------------------------------------------------------------|
B|-15h17-~-14h15-~~--12h14-~-----------------------------------------------|
G|---------------------------14h16-~----\14^16v14^16-~-v14-----------------|
D|-------------------------------------------------------------------------|
A|-------------------------------------------------------------------------|
E|-------------------------------------------------------------------------|
[ Tab from: http://www.guitartabs.cc/tabs/j/junoon/janey_tu_tab.html ]
e|---------------------------------14^15-v14--14^15~---v14p12-----12-14-12~|
B|-15p14p12-12-17^19-17^19-~--v17------------------------------15----------|
G|-------------------------------------------------------------------------|
D|-------------------------------------------------------------------------|
A|-------------------------------------------------------------------------|
E|-------------------------------------------------------------------------|

e|-12-14--/22-~-19^21-~-19-~--17p15p14-~------------------------14-15------|
B|----------------------------------------17^19-~--17-~--15-~17------------|
G|-------------------------------------------------------------------------|
D|-------------------------------------------------------------------------|
A|-------------------------------------------------------------------------|
E|-------------------------------------------------------------------------|

e|-14--15P14-15P14----------17------17--------17^19V17^19-~~---V17---------|
B|------------------17--14------14------14---------------------------------|
G|-------------------------------------------------------------------------|
D|-------------------------------------------------------------------------|
A|-------------------------------------------------------------------------|
E|-------------------------------------------------------------------------|

| /  slide up
| \  slide down
| h  hammer-on
| p  pull-off
| ~  vibrato
| +  harmonic
| x  Mute note
============================================================================
Comments