Junoon - Iltija Chords & Tabs

 

Iltija Chords & Tabs

Junoon Chords & Tabs

Version: 1 Type: Tab 0 ratings
1 star 2 stars 3 stars 4 stars 5 stars
comments

Iltija Tab

   
Iltija

E-------0------------------------------- 
B-----3---3------------3-----------0---- 
G---6-------6--------6---6-------6---6-- 
D-4----------------4-------4---4-------4 
A----------------------------5---------- 
E----------------0---------------------- 

E------------------------ 
B-------5-----5------5--- 
G-----2-----2------2----- 
D---3-----3-----3------3- 
A-5---------------------- 
E------------------------ 

E----------------------- 
B----------------------- 
G-------5-----5-----5--- 
D-----2-----2-----2----- 
A---3-----3-----3-----3- 
E-4--------------------- 

E---------------- 
B-------3----3--- 
G-----2----2----- 
D---3----3-----3- 
A-3-------------- 
E---------------- 

E----------------------- 
G-------3-----3-----3--- 
B-----2-----2-----2----- 
D---3-----3-----3-----3- 
A-2--------------------- 
E----------------------- 


The rest by:

Author: Asad Khan 
[ Tab from: http://www.guitartabs.cc/tabs/j/junoon/iltija_tab.html ]
(Chorus:) 
F#m Bm F#m 
Shaam-o-sa(h)ar () rehmat hai (t)eri 
F#m D Bm 
Sun ae khu(D)a ilti(j)aa me(r)i 
F#m Bm F#m 
Mujhe ko bhi (d)eeeee chaaon gha(n)eri 
F#m D Bm 
Sun le za(r)a ilti(j)a me(r)i 

(Bm)Khaas sadaa hai her (F#m)koi 
(Bm)Kaise hai yeh beba(F#m)si 
(Bm)Kitni be (F#m)yaqeen 
(Bm)Hai yeh zinda(F#m)gi 

(D)Dekh beh(Bm)taa lahoo 
(D)Kyoun kha(Bm)mosh rahoon 
(D)Sun le (Bm)zara ilti(C#)jaa me(F#m)ri 

(Salman's Lead) 

Chorus Repeat 

(Bm)Tu hi mere dil ka (F#m)yaqeen 
(Bm)Tere siwaa koi aur (F#m)nahi 
(Bm)Tu be-ni(F#m)yaaz 
(Bm)Tu Kar-(F#m)saaz 

(D)Aankhein hain (Bm)aaj num 
(D)Chaahoon te(Bm)ra karam 
(D)Sun le (Bm)zara ilti(C#)jaa me(F#m)ri 

Note: Before this part the song is three-beat,
 from this point on it changes to four-beats.


Bridge: 

(F#m)Sun ae khuda iltijaa meri 
(keep repeating this while Azmat comes in singing) 
Tu beniyaaaaaaaaaaaaaaaaaz 
Tu Kar-Saaz, Kar-Saaaaaaaaaaaaaaaaaaaz 

Usman Haroon
usmanh_81@yahoo.com
Comments