Junoon - Ghoom Chords & Tabs

 

Ghoom Chords & Tabs

Junoon Chords & Tabs

Version: 1 Type: Tab 0 ratings
1 star 2 stars 3 stars 4 stars 5 stars
comments

Ghoom Tab

   
Ghoom	-	Transcribed by Parees


X : Mute the string
s : slide

Strum each chord a couple of times before moving onto the next one.
For the correct strumming pattern listen to the original song.

E --X----------X--------X-------X-----------------------------
B --4----------3--------2-------1-----------------------------
G --3----------3--------3-------3-----------------------------
D ------------------------------------------------------------
A ------------------------------------------------------------
E ------------------------------------------------------------

when moving between the following chords slide ur fingers

E --X----------X--------X-------X-----------------------------
B --4---------s6-------s7------s9-----------------------------
G --3---------s5-------s6------s8-----------------------------
D ------------------------------------------------------------
A ------------------------------------------------------------
E ------------------------------------------------------------


Alternative version by Atif Javed Ali:

X : Mute the string


Strum each chord a couple of times before moving onto the next one.
For the correct strumming pattern listen to the original song.
[ Tab from: http://www.guitartabs.cc/tabs/j/junoon/ghoom_tab.html ]
E------10---------9--------8---------7-----------------------
B------10--------10-------10--------10-----------------------
G-------x---------x--------x---------x-----------------------
D -----------------------------------------------------------
A -----------------------------------------------------------
E -----------------------------------------------------------


Yet another version by Ahmar Ghaffar (ahmars@softhome.net)

                      Ghoom
                                *****
Band : Junoon
Song : Ghoom
Album : Parvaaz


Figure A:

    Dm  

E--1--1--0--0--0--0--3--3--------------
B--3--3--2--2--1--1--0--0--------------
G--2--2--2--2--2--2--2--2--------------
D--------------------------------------
A--------------------------------------
E--------------------------------------


With Figure A:


Chorous :

Dm      Dm

Ghoom Carkha ghoom .....ghoom etc


Dm           F      Dm

Teri Kathan Wali Jeeway

        F           Dm

Laryan Watan Wali Jeeway        

Bb              

Ik allah koolon mein dardi...





Verse :

Dm      Dm      Dm

Charkha boolay sain sain...

F          Dm



I think u shud get the idea from that!!


Usman Haroon
usmanh_81@yahoo.com


Comments