Junoon - Dosti Chords & Tabs

 

Dosti Chords & Tabs

Junoon Chords & Tabs

Version: 2 Type: Tab 0 ratings
1 star 2 stars 3 stars 4 stars 5 stars
comments

Dosti Tab

   
Dosti - (Attention; This is has been transcribed by Khurram Farooq)

|-12--------12-12-12---12------------12--|
|-12-/-13---13-13-13---12-h-13-p-12--12--|
|-14--------14-14-14---14------------14--|
|----------------------------------------|
|----------------------------------------|
|----------------------------------------|

|--12--12--12--12--12--12--12--12---|
|--15--15--15--15--15--15--15--15---|
|--14--14--14--14--14--14--14--14---|
|-----------------------------------|
|-----------------------------------|
|-----------------------------------|

|-12--------12-12-12---12------------12--|
|-12-/-13---13-13-13---12-h-13-p-12--12--|
|-14--------14-14-14---14------------14--|
|----------------------------------------|
|----------------------------------------|
|----------------------------------------|

|-----------------------------------|
|--13--13--13--13--13--13--13--13---|
|--14--14--14--14--14--14--14--14---|
|--15--15--15--15--15--15--15--15---|
|-----------------------------------|
|-----------------------------------|

|-12--------12-12-12---12------------12--|
|-12-/-13---13-13-13---12-h-13-p-12--12--|
|-14--------14-14-14---14------------14--|
|----------------------------------------|
|----------------------------------------|
|----------------------------------------|
[ Tab from: http://www.guitartabs.cc/tabs/j/junoon/dosti_tab_ver_2.html ]
|--12--12--12--12--12--12--12--12---|
|--15--15--15--15--15--15--15--15---|
|--14--14--14--14--14--14--14--14---|
|-----------------------------------|
|-----------------------------------|
|-----------------------------------|

|-12--------12-12-12---12------------12--|
|-12-/-13---13-13-13---12-h-13-p-12--12--|
|-14--------14-14-14---14------------14--|
|----------------------------------------|
|----------------------------------------|
|----------------------------------------|

|-----------------------------------|
|--13-------------------------------|
|--14-------------------------------|
|--15-------------------------------|
|-----------------------------------|
|-----------------------------------|


Chorus:

Yaaron (Am)yahi dosti (F)hai

Qis(G)mat se jo mili (C)hai

sub (Am)sang chalen

sub (G)rang chalen

(F)chalte rahein hum (Am)sada

(Repeat Chorus)

Verse1:

(Am)Toote na kabhi saath ye

(F)choote na kabhi saath ye

(G)apni to he yahi (E)dua

(Am)Toote na kabhi saath ye

(F)choote na kabhi saath ye

(G)apni to he yahi (E)dua

(Repeat Chorus)

(Salman's lead)

Verse2:

(Am)Chalte rahein hum tum

(F)yu heen barhte rahen hum tum

(G)khusion ke sang hum tum (E)sada

(Am)Chalte rahein hum tum

(F)yu heen barhte rahen hum tum

(G)khusion ke sang hum tum (E)sada

(Repeat Chorus x 2)

(Keep repeating the chords for chorus while Azmat sings "Yaro, ye he ..." and then
Salman takes on with his lead)

Note: You may need to transpose the song.

Usman Haroon
usmanh_81@yahoo.com
Comments