Junkies - Maszk Chords & Tabs

 

Maszk Chords & Tabs

Junkies Chords & Tabs

Version: 2 Type: Tab 0 ratings
1 star 2 stars 3 stars 4 stars 5 stars
comments

Maszk Tab

   
hello. This is a hungarian band, and a hungarian track.

           J  U  N  K  I  E  S

                M-a-s-z-k





Chords:

G#b5  476444
G#5   466444

INTRO
-----

E----------------------------------------?-----------------------------|
B-------------4----------------4---------?-----------------------------|
G----------------6-------6-------4-------?-----------------------------|
D-------------------7-7----7-------6-----?--------6------------6-------|
A-----6------------------------------7---?----6-----6------6-----6---6-|
E--7-----7-------------------------------?--4---4------4-4---4-----4---|
   G#b5						G#5

E----------------------------------------?-----------------------------|
B-------------4----------------4---------?-----------------------------|
G----------------6-------6-------4-------?-----------------------------|
D-------------------7-7----7-------4-----?--------6--------------------|
A-----6------------------------------6---?----6-----6------------------|
E--7-----7-------------------------------?--4---4------4---------------|
   G#b5						G#5

Val?s?g...					Csal?d?s...
Sz?vembe z?rt...				Sok hazugs?g...

De nem tudoooooooooooooooooooom............


E-------------------------|
B-------------------------|
G---------------  -->  ?4-|
D--2--2--2--2-------------|
A--2--2--2--2-------------|
E--0--0--0--0-------------|
[ Tab from: http://www.guitartabs.cc/tabs/j/junkies/maszk_tab_ver_2.html ]
E-------------------------------------------|
B-------------------------------------------|
G----------7-6------------------------------|
D--4-4-4-4-7-6-6-6-6-6-6-6-6-6---   -->  ?4-|
A--4-4-4-4-5-4-6-6-6-6-6-6-6-6--------------|
E--2-2-2-2-----4-4-4-4-4-4-4-4--------------|


VERSES
------

E------------------------------------?--------------------------------------|
B------------------------------------?--------------------------------------|
G------------------------------------?--------------------------------------|
D--6-6-6-6-6-6-6-6-6-6-6-6-6-6-6-6---?--6-6-6-6-6-6-6-6-6-6-6-6---6--4-4-4--|
A--7-7-7-7-7-7-7-7-6-6-6-6-6-6-6-6---?--7-7-7-7-7-7-7-7-6-6-6-6---6--4-4-4--|
E--4-4-4-4-4-4-4-4-4-4-4-4-4-4-4-4---?--4-4-4-4-4-4-4-4-4-4-4-4---4--2-2-2--|

E------------------------------------?--------------------------------------|
B------------------------------------?--------------------------------------|
G------------------------------------?--------------------------------------|
D--6-6-6-6-6-6-6-6-6-6-6-6-6-6-6-6---?--2-2---4-4----6-6-6-6----------------|
A--7-7-7-7-7-7-7-7-6-6-6-6-6-6-6-6---?--2-2---4-4----6-6-6-6--6-5-4---------|
E--4-4-4-4-4-4-4-4-4-4-4-4-4-4-4-4---?--0-0---2-2----4-4-4-4--------4-------|


INTERLUDE
---------

E-------------------------------------|
B-------------------------------------|
G-------------------------------------|
D-------------------------     --> ?2-|
A----6~----7-7-9-7--------------------|
E-------4~---------4~-----------------|


hope ya enjoyed

keep on having parties!
			DURSTORIQUE
Comments