Junior Senior - Move Your Feet Chords & Tabs

 

Move Your Feet Chords & Tabs

Junior Senior Chords & Tabs

Version: 2 Type: Tab 0 ratings
1 star 2 stars 3 stars 4 stars 5 stars
comments

Move Your Feet Tab

   
--------------------------------------------------------------------------------
                         Move Your Feet - Junior Senior
--------------------------------------------------------------------------------

Artist: Junior Senior
Song: Move Your Feet
Albulm: D-D-Don't Stop The Beat
Tabbed by: Zeroisgreatman
Tunning: EADGBe

Intro/Fill:
e|------------|
B|-5-----8-7~-|
G|---5--------|
D|-----7------|
A|------------|
E|------------|

Bells:
e|--------------3-5-|
B|-2~-2~-2~-2~------|
G|-2~-2~-2~-2~------|
D|-2~-2~-2~-2~------|
A|-0~-0~-0~-0~------|
E|------------------|


"Oh yeah, I'm going down town"
e|------------------|
B|------------------|
G|-5/7-7/9-9\2--2-2-|
D|-5/7-7/9-9\2--2-2-|
A|-3/5-5/7-7\0--0-0-|
E|------------------|

Interlude: "Oh yeah"(Choppy Rhythem)
e|---------------------------|
B|---------------------------|
G|-7-7-7-7-/-9-9-9-9---------|
D|-x-x-x-x-/-x-x-x-x-7-7-7-7-|
A|-5-5-5-5-/-7-7-7-7-x-x-x-x-|
E|-------------------5-5-5-5-|
[ Tab from: http://www.guitartabs.cc/tabs/j/junior_senior/move_your_feet_tab_ver_2.html ]
"Everybody, move your feet..."(Rhythem)
e|------------------------------------|
B|------------------------------------|
G|-7-7-7-7-----------7-7-7-7----------|
D|-7-7-7-7--7-7-7-7--7-7-7-7--7-7-7-7-|
A|-5-5-5-5--7-7-7-7--5-5-5-5--7-7-7-7-|
E|----------5-5-5-5-----------5-5-5-5-|

(Lead Under it)
e|--------------------------------------------------3-3-3-|
B|-5-5-5--2-2-2---------5-5-5--3-3-3----------------------|
G|---------------2-2-2----------------5-5-5--2-2-2--------|
D|--------------------------------------------------------|
A|--------------------------------------------------------|
E|--------------------------------------------------------|

(Senior Raps with just the beat box, after wards the intro follows)

Lyrics:

Everybody, 
move your feet and feel united, 
Oh.

D-d-don't stop the beat,
C-c-can't control my feet.
p-p-people in the street,
Come on everybody move your feet.

Don't stop, 
Don't stop the beat, 
Can't stop, 
Can't stop the beat.
Won't stop,
Won't stop the beat.
Go.

Oh Yeah, I'm going down town.

S-s-sing my song,
And y-y-you sing along.
Just p-p-put my record on,
And all of your trouble is dead and gone.

| x - Muted note
| / - Slide up
| \ - Slide down
| ~ - Vibrato

================================================================================
Comments