Junior Senior - Move Your Feet Chords & Tabs

 

Move Your Feet Chords & Tabs

Junior Senior Chords & Tabs

Version: 1 Type: Bass Tab 0 ratings
1 star 2 stars 3 stars 4 stars 5 stars
comments

Move Your Feet Bass Tab

Standard Tuning

Intro

|--------44-------22|
|-------------------|
|0-1-2/5----2-1-0---|
|-------------------|

Verse
|-----------44------|22|
|-------------------|--|
|00-0-1-2/5----2-1-0|--|
|-------------------|--|

Pre-Chorus
|-------|
|-------|
|0--0--0|
|-------|
[ Tab from: http://www.guitartabs.cc/tabs/j/junior_senior/move_your_feet_btab.html ]
Chorus
|-----------------------------------------------|
|-----------------------------------------------|
|-5-57-70-00-05-57-70-00-05-57-70-00-05-57-70-00|
|-----------------------------------------------|


Order

intro x1
verse x3
pre-chorus x1
chorus x1
intro x1
verse x3
pre-chorus x0
chorus x1
intro x1
verse x3
pre-chorus x1
chorus x0
intro x1
verse x5
pre-chorus x3
Comments