Junior Kilat - Ako Si M-16 Chords & Tabs

 

Ako Si M-16 Chords & Tabs

Junior Kilat Chords & Tabs

Version: 1 Type: Bass Tab

Ako Si M-16 Bass Tab

i have no idea if this is correct.. ok i tabbed this long long ago... so i forgot how 
you would repeat any of those just use your ability to time the song...

this is after the trumphet...
[------]
[------]
[------]
[--2---]

no guitars yet, just bass...

[--------------------------------------]
[--------4-5-6-5-4-5-----4-5--6-5-4-5--]
[----4-5-------------4-5---------------]
[--------------------------------------]

on the last one just do this..
[ Tab from: http://www.guitartabs.cc/tabs/j/junior_kilat/ako_si_m_16_btab.html ]
[--------------------------------------]
[--------4-5-6-5-4-5-----4-5-----------]
[----4-5-------------4-5---------------]
[--------------------------------------]

this are for the verses and other parts of the song...

[----------------7-6-5--]
[----6-7-6-7-6-5--------]
[-8---------------------]
[-----------------------]

these are the choruses and still someother parts of the song.. and on the last ong it 
like this..
[------------------------]
[----6-7-6-7-6-5/11------]
[-8----------------------]
[------------------------]

thanks...ako si THE GREAT WALANG MAGAWA or JETT!!!