Jungle Rot - Misplaced Anger Chords & Tabs

 

Misplaced Anger Chords & Tabs

Jungle Rot Chords & Tabs

Version: 1 Type: Tab 0 ratings
1 star 2 stars 3 stars 4 stars 5 stars
comments

Misplaced Anger Tab

   
-------------------------------------------------------------------------------
		  "MISPLACED ANGER" - Jungle Rot
-------------------------------------------------------------------------------
Tabbed by: Paul Licht
Email: Metallicaking873@aol.com (contact me if you have ANY questions)

Tuning: 7-String Guitar BEADGBE    or    6-String Guitar BEADGB

Play Order:
Intro--------------------|1x
Main Riff----------------|4x
Verse--------------------|4x
Main Riff----------------|4x
Verse--------------------|4x
Main Riff----------------|8x
Breakdown A1(1 Guitar)--1x
Breakdown A2(2 Guitars)-1x
Breakdown B--------------|3x
Breakdown C--------------|2x
Breakdown A2-------------|1x
Breakdown B--------------|1x
Breakdown C--------------|2x
Breakdown A2-------------|1x
Breakdown B--------------|1x
Main Riff----------------|4x
Ending Thing-------------|1x

Intro [One Guitar] (Fast Picking)
E---------------------------------------------------|
B---------------------------------------------------|
G---------------------------------------------------|
D---------------------------------------------------|
A---------------------------------------------------|
E------------------------------------------6--------|
B-222221111222233332222111122223333222211114--------|

Main Riff:
E---------------------------------------------------|
B---------------------------------------------------|
G---------------------------------------------------|
D---------------------------------------------------|
A---------------------------------------------------|
E--4-3-4-5-4-3-4-5-4-3-4-5-4-3-4-5------------------|
B--2-1-2-3-2-1-2-3-2-1-2-3-2-1-4-5------------------|

Verse:
E---------------------------------------------------|
B---------------------------------------------------|
G---------------------------------------------------|
D---------------------------------------------------|
A---------------------------------------------------|
E-44443--44443--44443--444444444444444444443--------|
B-22221--22221--22221--222222222222222222221--------|


Breakdown A1:

Guitar 1- (Fast Picking)
E---------------------------------------------------|
B---------------------------------------------------|
G---------------------------------------------------|
D---------------------------------------------------|
A---------------------------------------------------|
E---------------------------------------------------|
B-0000000--555555555--11111111--44444444------------|
[ Tab from: http://www.guitartabs.cc/tabs/j/jungle_rot/misplaced_anger_tab.html ]
Guitar 2- (Down Beats)
E---------------------------------------------------|
B---------------------------------------------------|
G---------------------------------------------------|
D---------------------------------------------------|
A---------------------------------------------------|
E-2--------7----------3-----------------------------|
B-0--------5----------1---------44444444------------|

Breakdown A2:
Guitar 1- (Fast Picking)
E---------------------------------------------------|
B---------------------------------------------------|
G---------------------------------------------------|
D---------------------------------------------------|
A---------------------------------------------------|
E---------------------------------------------------|
B-0000000--555555555--11111111--44444444------------|

Guitar 2- (Fast Picking)
E---------------------------------------------------|
B---------------------------------------------------|
G---------------------------------------------------|
D---------------------------------------------------|
A---------------------------------------------------|
E---------------------------------------------------|
B-0000000--555555555--11111111--44444444------------|

Breakdown B:
Guitar 1- (Fast Picking)
E-------------------------------------------------------|
B-------------------------------------------------------|
G-------------------------------------------------------|
D-------------------------------------------------------|
A-------------------------------------------------------|
E-------------------------------------------------------|
B-12-12-12-12---17-17-17-17---13-13-13-13---16-16-16-16-|

Guitar 2- (Fast Picking)
E---------------------------------------------------|
B---------------------------------------------------|
G---------------------------------------------------|
D---------------------------------------------------|
A---------------------------------------------------|
E---------------------------------------------------|
B-0000000--555555555--11111111--44444444------------|


Breakdown C:
Both Guitars-
E---------------------------------------------------|
B---------------------------------------------------|
G---------------------------------------------------|
D---------------------------------------------------|
A---------------------------------------------------|
E-2~-------7~---------3~--------6~--5-3-------------|
B-0~-------5~---------1~--------4~--3-1-------------|


Ending Thingy: (Part of Verse)
E---------------------------------------------------|
B---------------------------------------------------|
G---------------------------------------------------|
D---------------------------------------------------|
A---------------------------------------------------|
E-44443---------------------------------------------|
B-22221---------------------------------------------|
Comments