Jungle Rot - Face Down Chords & Tabs

 

Face Down Chords & Tabs

Jungle Rot Chords & Tabs

Version: 1 Type: Tab 0 ratings
1 star 2 stars 3 stars 4 stars 5 stars
comments

Face Down Tab

   
BAND: JUNGLE ROT
SONG: "FACE DOWN"
ALBUM: "FUELED BY HATE"
TUNING: DROP-B (B F# B E G# C#)

This song is extremely easy.  It's all written out here from start to finish.

~ = Let ring

*Heavy distortion*

INTRO:
C#|-----------------------------------------
G#|-----------------------------------------
E |-----------------------------------------
B |-----------------0~-----------------0-1--
F#|-----------------0~-----------------0-1--
B |-0-0-0-0-0-0-0-0-0~-0-0-0-0-0-0-0-0-0-1--
PM  . . . . . . . .    . . . . . . . .

C#|-----------------------------------------
G#|-----------------------------------------
E |-----------------------------------------
B |-----------------0~-----------------0-1--
F#|-----------------0~-----------------0-1--
B |-0-0-0-0-0-0-0-0-0~-0-0-0-0-0-0-0-0-0-1--
PM  . . . . . . . .    . . . . . . . .

C#|-----------------------------------------
G#|-----------------------------------------
E |-----------------------------------------
B |-----------------0~-----------------0-1--
F#|-----------------0~-----------------0-1--
B |-0-0-0-0-0-0-0-0-0~-0-0-0-0-0-0-0-0-0-1--
PM  . . . . . . . .    . . . . . . . .

C#|-----------------------------------------
G#|-----------------------------------------
E |-----------------------------------------
B |-----------------0~-----------------0-1--
F#|-----------------0~-----------------0-1--
B |-0-0-0-0-0-0-0-0-0~-0-0-0-0-0-0-0-0-0-1--
PM  . . . . . . . .    . . . . . . . .

VERSE:
C#|-----------------------------------------
G#|-----------------------------------------
E |-----------------------------------------
B |-0-0-0-0-1-1-1-1-8-8-8-8-7-7-7-7---------
F#|-0-0-0-0-1-1-1-1-8-8-8-8-7-7-7-7---------
B |-0-0-0-0-1-1-1-1-8-8-8-8-7-7-7-7---------

C#|-----------------------------------------
G#|-----------------------------------------
E |-----------------------------------------
B |-----------------0~-----------------0-1--
F#|-----------------0~-----------------0-1--
B |-0-0-0-0-0-0-0-0-0~-0-0-0-0-0-0-0-0-0-1--
PM  . . . . . . . .    . . . . . . . .
                   "Fresh              Soil"

C#|-----------------------------------------
G#|-----------------------------------------
E |-----------------------------------------
B |-0-0-0-0-1-1-1-1-8-8-8-8-7-7-7-7---------
F#|-0-0-0-0-1-1-1-1-8-8-8-8-7-7-7-7---------
B |-0-0-0-0-1-1-1-1-8-8-8-8-7-7-7-7---------

C#|-----------------------------------------
G#|-----------------------------------------
E |-----------------------------------------
B |-----------------0~-----------------0-1--
F#|-----------------0~-----------------0-1--
B |-0-0-0-0-0-0-0-0-0~-0-0-0-0-0-0-0-0-0-1--
PM  . . . . . . . .    . . . . . . . .

C#|-----------------------------------------
G#|-----------------------------------------
E |-----------------------------------------
B |-0-0-0-0-1-1-1-1-8-8-8-8-7-7-7-7---------
F#|-0-0-0-0-1-1-1-1-8-8-8-8-7-7-7-7---------
B |-0-0-0-0-1-1-1-1-8-8-8-8-7-7-7-7---------

C#|-----------------------------------------
G#|-----------------------------------------
E |-----------------------------------------
B |-----------------0~-----------------0-1--
F#|-----------------0~-----------------0-1--
B |-0-0-0-0-0-0-0-0-0~-0-0-0-0-0-0-0-0-0-1--
PM  . . . . . . . .    . . . . . . . .

C#|-----------------------------------------
G#|-----------------------------------------
E |-----------------------------------------
B |-0-0-0-0-1-1-1-1-8-8-8-8-7-7-7-7---------
F#|-0-0-0-0-1-1-1-1-8-8-8-8-7-7-7-7---------
B |-0-0-0-0-1-1-1-1-8-8-8-8-7-7-7-7---------

C#|-----------------------------------------
G#|-----------------------------------------
E |-----------------------------------------
B |-----------------0~-----------------0-1--
F#|-----------------0~-----------------0-1--
B |-0-0-0-0-0-0-0-0-0~-0-0-0-0-0-0-0-0-0-1--
PM  . . . . . . . .    . . . . . . . .

FILL 1:
C#|-----------------------------------------
G#|-----------------------------------------
E |-----------------------------------------
B |-------------------------------6---------
F#|-------------------------------6---------
B |-0-0-0-0-0-0-0-0-0-0-0-0-0-0-0-6---------
PM  . . . . . . . . . . . . . . .

C#|-----------------------------------------
G#|-----------------------------------------
E |-----------------------------------------
B |-------------------------------6---------
F#|-------------------------------6---------
B |-0-0-0-0-0-0-0-0-0-0-0-0-0-0-0-6---------
PM  . . . . . . . . . . . . . . .

C#|-----------------------------------------
G#|-----------------------------------------
E |-----------------------------------------
B |-------------------------------6---------
F#|-------------------------------6---------
B |-0-0-0-0-0-0-0-0-0-0-0-0-0-0-0-6---------
PM  . . . . . . . . . . . . . . .

C#|-----------------------------------------
G#|-----------------------------------------
E |-----------------------------------------
B |-------------------------------5-6-5-----
F#|-------------------------------5-6-5-----
B |-0-0-0-0-0-0-0-0-0-0-0-0-0-0-0-5-6-5-----
PM  . . . . . . . . . . . . . . .

C#|-----------------------------------------
G#|-----------------------------------------
E |-----------------------------------------
B |-------------------------------6---------
F#|-------------------------------6---------
B |-0-0-0-0-0-0-0-0-0-0-0-0-0-0-0-6---------
PM  . . . . . . . . . . . . . . .
"Beneath the soil..."

C#|-----------------------------------------
G#|-----------------------------------------
E |-----------------------------------------
B |-------------------------------6---------
F#|-------------------------------6---------
B |-0-0-0-0-0-0-0-0-0-0-0-0-0-0-0-6---------
PM  . . . . . . . . . . . . . . .

C#|-----------------------------------------
G#|-----------------------------------------
E |-----------------------------------------
B |-------------------------------6---------
F#|-------------------------------6---------
B |-0-0-0-0-0-0-0-0-0-0-0-0-0-0-0-6---------
PM  . . . . . . . . . . . . . . .

C#|-----------------------------------------
G#|-----------------------------------------
E |-----------------------------------------
B |-------------------------------5-6-5-----
F#|-------------------------------5-6-5-----
B |-0-0-0-0-0-0-0-0-0-0-0-0-0-0-0-5-6-5-----
PM  . . . . . . . . . . . . . . .

VERSE:
C#|-----------------------------------------
G#|-----------------------------------------
E |-----------------------------------------
B |-0-0-0-0-1-1-1-1-8-8-8-8-7-7-7-7---------
F#|-0-0-0-0-1-1-1-1-8-8-8-8-7-7-7-7---------
B |-0-0-0-0-1-1-1-1-8-8-8-8-7-7-7-7---------

C#|-----------------------------------------
G#|-----------------------------------------
E |-----------------------------------------
B |-----------------0~-----------------0-1--
F#|-----------------0~-----------------0-1--
B |-0-0-0-0-0-0-0-0-0~-0-0-0-0-0-0-0-0-0-1--
PM  . . . . . . . .    . . . . . . . .

C#|-----------------------------------------
G#|-----------------------------------------
E |-----------------------------------------
B |-0-0-0-0-1-1-1-1-8-8-8-8-7-7-7-7---------
F#|-0-0-0-0-1-1-1-1-8-8-8-8-7-7-7-7---------
B |-0-0-0-0-1-1-1-1-8-8-8-8-7-7-7-7---------

C#|-----------------------------------------
G#|-----------------------------------------
E |-----------------------------------------
B |-----------------0~-----------------0-1--
F#|-----------------0~-----------------0-1--
B |-0-0-0-0-0-0-0-0-0~-0-0-0-0-0-0-0-0-0-1--
PM  . . . . . . . .    . . . . . . . .

C#|-----------------------------------------
G#|-----------------------------------------
E |-----------------------------------------
B |-0-0-0-0-1-1-1-1-8-8-8-8-7-7-7-7---------
F#|-0-0-0-0-1-1-1-1-8-8-8-8-7-7-7-7---------
B |-0-0-0-0-1-1-1-1-8-8-8-8-7-7-7-7---------

C#|-----------------------------------------
G#|-----------------------------------------
E |-----------------------------------------
B |-----------------0~-----------------0-1--
F#|-----------------0~-----------------0-1--
B |-0-0-0-0-0-0-0-0-0~-0-0-0-0-0-0-0-0-0-1--
PM  . . . . . . . .    . . . . . . . .

C#|-----------------------------------------
G#|-----------------------------------------
E |-----------------------------------------
B |-0-0-0-0-1-1-1-1-8-8-8-8-7-7-7-7---------
F#|-0-0-0-0-1-1-1-1-8-8-8-8-7-7-7-7---------
B |-0-0-0-0-1-1-1-1-8-8-8-8-7-7-7-7---------

C#|-----------------------------------------
G#|-----------------------------------------
E |-----------------------------------------
B |-----------------0~-----------------0-1--
F#|-----------------0~-----------------0-1--
B |-0-0-0-0-0-0-0-0-0~-0-0-0-0-0-0-0-0-0-1--
PM  . . . . . . . .    . . . . . . . .

FILL 1:
C#|-----------------------------------------
G#|-----------------------------------------
E |-----------------------------------------
B |-------------------------------6---------
F#|-------------------------------6---------
B |-0-0-0-0-0-0-0-0-0-0-0-0-0-0-0-6---------
PM  . . . . . . . . . . . . . . .

C#|-----------------------------------------
G#|-----------------------------------------
E |-----------------------------------------
B |-------------------------------6---------
F#|-------------------------------6---------
B |-0-0-0-0-0-0-0-0-0-0-0-0-0-0-0-6---------
PM  . . . . . . . . . . . . . . .

C#|-----------------------------------------
G#|-----------------------------------------
E |-----------------------------------------
B |-------------------------------6---------
F#|-------------------------------6---------
B |-0-0-0-0-0-0-0-0-0-0-0-0-0-0-0-6---------
PM  . . . . . . . . . . . . . . .
[ Tab from: http://www.guitartabs.cc/tabs/j/jungle_rot/face_down_tab.html ]
C#|-----------------------------------------
G#|-----------------------------------------
E |-----------------------------------------
B |-------------------------------5-6-5-----
F#|-------------------------------5-6-5-----
B |-0-0-0-0-0-0-0-0-0-0-0-0-0-0-0-5-6-5-----
PM  . . . . . . . . . . . . . . .

C#|-----------------------------------------
G#|-----------------------------------------
E |-----------------------------------------
B |-------------------------------6---------
F#|-------------------------------6---------
B |-0-0-0-0-0-0-0-0-0-0-0-0-0-0-0-6---------
PM  . . . . . . . . . . . . . . .


C#|-----------------------------------------
G#|-----------------------------------------
E |-----------------------------------------
B |-------------------------------6---------
F#|-------------------------------6---------
B |-0-0-0-0-0-0-0-0-0-0-0-0-0-0-0-6---------
PM  . . . . . . . . . . . . . . .

C#|-----------------------------------------
G#|-----------------------------------------
E |-----------------------------------------
B |-------------------------------6---------
F#|-------------------------------6---------
B |-0-0-0-0-0-0-0-0-0-0-0-0-0-0-0-6---------
PM  . . . . . . . . . . . . . . .

C#|-----------------------------------------
G#|-----------------------------------------
E |-----------------------------------------
B |-------------------------------5-6-5-----
F#|-------------------------------5-6-5-----
B |-0-0-0-0-0-0-0-0-0-0-0-0-0-0-0-5-6-5-----
PM  . . . . . . . . . . . . . . .

FILL 2:
C#|-----------------------------------------
G#|-----------------------------------------
E |-----------------------------------------
B |-----------------------------------------
F#|-0-0-0-0-0-3-0-0-0-0-0-6-0-0-0-0-0-1-----
B |-0-0-0-0-0-3-0-0-0-0-0-6-0-0-0-0-0-1-----

C#|-----------------------------------------
G#|-----------------------------------------
E |-----------------------------------------
B |-----------------------------------------
F#|-0-0-0-0-0-3-0-0-0-0-0-6-0-0-0-0-0-1-----
B |-0-0-0-0-0-3-0-0-0-0-0-6-0-0-0-0-0-1-----

C#|-----------------------------------------
G#|-----------------------------------------
E |-----------------------------------------
B |-----------------------------------------
F#|-0-0-0-0-0-3-0-0-0-0-0-6-0-0-0-0-0-1-----
B |-0-0-0-0-0-3-0-0-0-0-0-6-0-0-0-0-0-1-----

C#|-----------------------------------------
G#|-----------------------------------------
E |-----------------------------------------
B |-----------------------------------------
F#|-0-0-0-0-0-3-0-0-0-0-0-6-0-0-0-0-0-1-----
B |-0-0-0-0-0-3-0-0-0-0-0-6-0-0-0-0-0-1-----

C#|-----------------------------------------
G#|-----------------------------------------
E |-----------------------------------------
B |-0-0-0-0-0-3-0-0-0-0-0-6-0-0-0-0-0-1-----
F#|-0-0-0-0-0-3-0-0-0-0-0-6-0-0-0-0-0-1-----
B |-0-0-0-0-0-3-0-0-0-0-0-6-0-0-0-0-0-1-----
"Lying face down in the mud..."

C#|-----------------------------------------
G#|-----------------------------------------
E |-----------------------------------------
B |-0-0-0-0-0-3-0-0-0-0-0-6-0-0-0-0-0-1-----
F#|-0-0-0-0-0-3-0-0-0-0-0-6-0-0-0-0-0-1-----
B |-0-0-0-0-0-3-0-0-0-0-0-6-0-0-0-0-0-1-----

C#|-----------------------------------------
G#|-----------------------------------------
E |-----------------------------------------
B |-0-0-0-0-0-3-0-0-0-0-0-6-0-0-0-0-0-1-----
F#|-0-0-0-0-0-3-0-0-0-0-0-6-0-0-0-0-0-1-----
B |-0-0-0-0-0-3-0-0-0-0-0-6-0-0-0-0-0-1-----

C#|-----------------------------------------
G#|-----------------------------------------
E |-----------------------------------------
B |-0-0-0-0-0-3-0-0-0-0-0-6-0-0-0-0-0-1-----
F#|-0-0-0-0-0-3-0-0-0-0-0-6-0-0-0-0-0-1-----
B |-0-0-0-0-0-3-0-0-0-0-0-6-0-0-0-0-0-1-----

CHORUS:
C#|-------------------------------------------
G#|-------------------------------------------
E |-------------------------------------------
B |-0~------------6~----0~------------6-0-6---
F#|-0~------------6~----0~------------6-0-6---
B |-0~--0-0--0-0--6~----0~--0-0--0-0--6-0-6---
PM      . .  . .            . .  . .

C#|-------------------------------------------
G#|-------------------------------------------
E |-------------------------------------------
B |-0~------------6~----0~------------6-0-6---
F#|-0~------------6~----0~------------6-0-6---
B |-0~--0-0--0-0--6~----0~--0-0--0-0--6-0-6---
PM      . .  . .            . .  . .

C#|-------------------------------------------
G#|-------------------------------------------
E |-------------------------------------------
B |-0~------------6~----0~------------6-0-6---
F#|-0~------------6~----0~------------6-0-6---
B |-0~--0-0--0-0--6~----0~--0-0--0-0--6-0-6---
PM      . .  . .            . .  . .
                 "Face  Down"

C#|-------------------------------------------
G#|-------------------------------------------
E |-------------------------------------------
B |-0~------------6~----0~------------6-0-6---
F#|-0~------------6~----0~------------6-0-6---
B |-0~--0-0--0-0--6~----0~--0-0--0-0--6-0-6---
PM      . .  . .            . .  . .
                 "Face  Down"

FILL 2:
C#|-----------------------------------------
G#|-----------------------------------------
E |-----------------------------------------
B |-0-0-0-0-0-3-0-0-0-0-0-6-0-0-0-0-0-1-----
F#|-0-0-0-0-0-3-0-0-0-0-0-6-0-0-0-0-0-1-----
B |-0-0-0-0-0-3-0-0-0-0-0-6-0-0-0-0-0-1-----

C#|-----------------------------------------
G#|-----------------------------------------
E |-----------------------------------------
B |-0-0-0-0-0-3-0-0-0-0-0-6-0-0-0-0-0-1-----
F#|-0-0-0-0-0-3-0-0-0-0-0-6-0-0-0-0-0-1-----
B |-0-0-0-0-0-3-0-0-0-0-0-6-0-0-0-0-0-1-----

C#|-----------------------------------------
G#|-----------------------------------------
E |-----------------------------------------
B |-0-0-0-0-0-3-0-0-0-0-0-6-0-0-0-0-0-1-----
F#|-0-0-0-0-0-3-0-0-0-0-0-6-0-0-0-0-0-1-----
B |-0-0-0-0-0-3-0-0-0-0-0-6-0-0-0-0-0-1-----

C#|-----------------------------------------
G#|-----------------------------------------
E |-----------------------------------------
B |-0-0-0-0-0-3-0-0-0-0-0-6-0-0-0-0-0-1-----
F#|-0-0-0-0-0-3-0-0-0-0-0-6-0-0-0-0-0-1-----
B |-0-0-0-0-0-3-0-0-0-0-0-6-0-0-0-0-0-1-----

C#|-----------------------------------------
G#|-----------------------------------------
E |-----------------------------------------
B |-0-0-0-0-0-3-0-0-0-0-0-6-0-0-0-0-0-1-----
F#|-0-0-0-0-0-3-0-0-0-0-0-6-0-0-0-0-0-1-----
B |-0-0-0-0-0-3-0-0-0-0-0-6-0-0-0-0-0-1-----

C#|-----------------------------------------
G#|-----------------------------------------
E |-----------------------------------------
B |-0-0-0-0-0-3-0-0-0-0-0-6-0-0-0-0-0-1-----
F#|-0-0-0-0-0-3-0-0-0-0-0-6-0-0-0-0-0-1-----
B |-0-0-0-0-0-3-0-0-0-0-0-6-0-0-0-0-0-1-----

CHORUS:
C#|-------------------------------------------
G#|-------------------------------------------
E |-------------------------------------------
B |-0~------------6~----0~------------6-0-6---
F#|-0~------------6~----0~------------6-0-6---
B |-0~--0-0--0-0--6~----0~--0-0--0-0--6-0-6---
PM      . .  . .            . .  . .

C#|-------------------------------------------
G#|-------------------------------------------
E |-------------------------------------------
B |-0~------------6~----0~------------6-0-6---
F#|-0~------------6~----0~------------6-0-6---
B |-0~--0-0--0-0--6~----0~--0-0--0-0--6-0-6---
PM      . .  . .            . .  . .

FILL 1:
C#|-----------------------------------------
G#|-----------------------------------------
E |-----------------------------------------
B |-------------------------------6---------
F#|-------------------------------6---------
B |-0-0-0-0-0-0-0-0-0-0-0-0-0-0-0-6---------
PM  . . . . . . . . . . . . . . .

C#|-----------------------------------------
G#|-----------------------------------------
E |-----------------------------------------
B |-------------------------------6---------
F#|-------------------------------6---------
B |-0-0-0-0-0-0-0-0-0-0-0-0-0-0-0-6---------
PM  . . . . . . . . . . . . . . .

C#|-----------------------------------------
G#|-----------------------------------------
E |-----------------------------------------
B |-------------------------------6---------
F#|-------------------------------6---------
B |-0-0-0-0-0-0-0-0-0-0-0-0-0-0-0-6---------
PM  . . . . . . . . . . . . . . .

C#|-----------------------------------------
G#|-----------------------------------------
E |-----------------------------------------
B |-------------------------------5-6-5-----
F#|-------------------------------5-6-5-----
B |-0-0-0-0-0-0-0-0-0-0-0-0-0-0-0-5-6-5-----
PM  . . . . . . . . . . . . . . .

C#|-----------------------------------------
G#|-----------------------------------------
E |-----------------------------------------
B |-------------------------------6---------
F#|-------------------------------6---------
B |-0-0-0-0-0-0-0-0-0-0-0-0-0-0-0-6---------
PM  . . . . . . . . . . . . . . .

C#|-----------------------------------------
G#|-----------------------------------------
E |-----------------------------------------
B |-------------------------------6---------
F#|-------------------------------6---------
B |-0-0-0-0-0-0-0-0-0-0-0-0-0-0-0-6---------
PM  . . . . . . . . . . . . . . .

C#|-----------------------------------------
G#|-----------------------------------------
E |-----------------------------------------
B |-------------------------------6---------
F#|-------------------------------6---------
B |-0-0-0-0-0-0-0-0-0-0-0-0-0-0-0-6---------
PM  . . . . . . . . . . . . . . .

C#|-----------------------------------------
G#|-----------------------------------------
E |-----------------------------------------
B |-------------------------------5-6-5-----
F#|-------------------------------5-6-5-----
B |-0-0-0-0-0-0-0-0-0-0-0-0-0-0-0-5-6-5-----
PM  . . . . . . . . . . . . . . .

END
Comments