Junction 18 - Granite Street Knife Fight Chords & Tabs

 

Granite Street Knife Fight Chords & Tabs

Junction 18 Chords & Tabs

Version: 2 Type: Tab 0 ratings
1 star 2 stars 3 stars 4 stars 5 stars
comments

Granite Street Knife Fight Tab

   
----------------------------------------------------------------------
		GRANITE STREET KNIFE FIGHT - Junction 18
----------------------------------------------------------------------
Tabbed by: Sean Green	
Email: the_bunglist@yahoo.com

Tuning: Half a step down ( i think )

INTRO AND BRIDGE

e|--------------------------------------------------------------------|
B|--------------------------------------------------------------------|
G|--------------------------------------------------------------------|
D|-----4-0----------4-0-----------------------------------------------|
A|-2-2-----2-0--2-2-----2-0-----4-4-----5-5-----4---4-5-7-------------| X2
E|--------------------------3-3-----3-3-----5-5---5-------------------|

e|--------------------------------------------------------------------|
B|--------------------------------------------------------------------|
G|--------------------------------------------------------------------|
D|-----4-0-4-5-4-2-0--------------------------------------------------|
A|-2-2-------------------4-4-----5-5-----4---4-5-7--------------------| X1
E|-------------------3-3-----3-3-----5-5---5--------------------------|

e|--------------------------------------------------------------------|
B|--------------------------------------------------------------------|
G|--------------------------------------------------------------------|
D|-----4-0-4-5-4-2-0--------------------------------------------------|
A|-2-2-------------------4-4-----5-5-----4---4h5p4p0------------------| X1
E|-------------------3-3-----3-3-----5-5---5--------------------------|

VERSE
[ Tab from: http://www.guitartabs.cc/tabs/j/junction_18/granite_street_knife_fight_tab_ver_2.html ]
e|--------------------------------------------------------------------|
B|--------------------------------------------------------------------|
G|-4-4-4--------------------------------------------------------------|
D|-4-4-4---5-5-5---7-7-7--5-5-5-7-7-7---------------------------------| X4
A|-2-2-2---5-5-5---7-7-7--5-5-5-7-7-7---------------------------------|
E|---------3-3-3---5-5-5--3-3-3-5-5-5---------------------------------|

CHORUS

e|--------------------------------------------------------------------|
B|--------------------------------------------------------------------|
G|--------7---6----------4-----2--------------------------------------|
D|-5--------------5------4-x8--2-x8-----------------------------------| X2
A|-5-x24--5---4---5-x16--2-----0--------------------------------------|
E|-3--------------3---------------------------------------------------|

BREAK (2.00 MINS IN)

e|--------------------------------------------------------------------|
B|--------------------------------------------------------------------|
G|----4---------------------------------------------------------------|
D|-2--4--4------END ON--7---------------------------------------------|
A|-2--2--2--------------7---------------------------------------------|
E|-0-----3--------------5---------------------------------------------|

ENDING

e|--------------------------------------------------------------------|
B|--------------------------------------------------------------------|
G|-4--4--4--4-4-4-----------------------------------------------------|
D|-4--4--4--4-4-4-----------------------------------------------------|
A|-2--2--0--2-2-2-----------------------------------------------------|
E|-0--3--0------------------------------------------------------------|

All parts are correct including the notes for the break ( I'm not sure of the 
exact tablature for it ). 
Please take the time to rate this tab if you found it useful!

| /  slide up
| \  slide down
| h  hammer-on
| p  pull-off
| ~  vibrato
| +  harmonic
| x  Mute note
===============================================================================
Comments