Junction 18 - Granite Street Knife Fight Chords & Tabs

 

Granite Street Knife Fight Chords & Tabs

Junction 18 Chords & Tabs

Version: 1 Type: Tab 0 ratings
1 star 2 stars 3 stars 4 stars 5 stars
comments

Granite Street Knife Fight Tab

-----------------------------------------
-----------------------------------------
-----------------------------------------
-----------------------------------------
----4-0-------4-0-------5-5---5-5---5-4-3
-2-2---2-0-2-2---2-0-3-3---3-3---3-3-----x2



--------------------------------------
--------------------------------------
--------------------------------------
--------------------------------------
----4-0-4-5-4-3-0---5-5----5-5---5-4-3
-2-2-------------3-3----3-3---3-3-----
[ Tab from: http://www.guitartabs.cc/tabs/j/junction_18/granite_street_knife_fight_tab.html ]
Comments