Junction 18 - Dakota Chords & Tabs

 

Dakota Chords & Tabs

Junction 18 Chords & Tabs

Version: 1 Type: Tab 0 ratings
1 star 2 stars 3 stars 4 stars 5 stars
comments

Dakota Tab

   
----------------------------------------------------------
	          DAKOTA - Junction 18
----------------------------------------------------------
Tabbed by: Sean Green
Email: the_bunglist@yahoo.com

Tuning: Half a step down ( i think )

Intro and Verse

e|-------------------------------------------------------|
B|-------------------------------------------------------|
G|-4-----------------------------------------------------|
D|-4--6--2-----------------------------------------------|
A|-2--6--2-----------------------------------------------|
E|----4--0-----------------------------------------------|

Second Guitar on intro

e|-------------------------------------------------------|
B|-------------------------------------------------------|
G|-8-9-11-6-8-4-------8-9-11-15-13-----------------------|
D|-------------------------------------------------------|
A|-6-7-9--4-6-2-------6-7-9--13-11-----------------------|
E|-------------------------------------------------------|

End the verse on:
[ Tab from: http://www.guitartabs.cc/tabs/j/junction_18/dakota_tab.html ]
e|-------------------------------------------------------|
B|-------------------------------------------------------|
G|-------------------------------------------------------|
D|--4-4-4-4-4--------------------------------------------|
A|--4-4-4-4-4--------------------------------------------|
E|--2-2-2-2-2--------------------------------------------|

Chorus

e|-------------------------------------------------------|
B|-------------------------------------------------------|
G|-4-----------------------------------------------------|
D|-4--6--2---4-4-4-4-4-----------------------------------|
A|-2--6--2---4-4-4-4-4-----------------------------------|
E|----4--0---2-2-2-2-2-----------------------------------|

Break ( "I can't stop thinking of......" )

e|-------------------------------------------------------|
B|-------------------------------------------------------|
G|-------4-----------------------------------------------|
D|-4--2--4-----------------------------------------------|
A|-4--2--2-----------------------------------------------|
E|-2--0--------------------------------------------------|


These are just the chords, listen to the CD to figure out
the rythms( it's a pretty simple song ). Remeber to rate
this tab if you found it useful!



| /  slide up
| \  slide down
| h  hammer-on
| p  pull-off
| ~  vibrato
| +  harmonic
| x  Mute note
===============================================================================
Comments