Jumpstart - 8 Days A Week Chords & Tabs

 

8 Days A Week Chords & Tabs

Jumpstart Chords & Tabs

Version: 1 Type: Tab 0 ratings
1 star 2 stars 3 stars 4 stars 5 stars
comments

8 Days A Week Tab

   
P=Pause
x=Mute
Intro Part 1
Guitar 2
1-----------------------------------------------
2-----------------------------------------------
3-----------------------------------------------
4---9-x-x-x-x-x-x-x-x-7-x-x-x-7-x-x-x-7-7-------
5---7-x-x-x-x-x-x-x-x-9-x-x-x-9-x-x-x-9-9-------
6-----------------------------------------------

1-----------------------------------------------
2-----------------------------------------------
3--6-x-x-x-x-x-x-x-x-6-x-x-x-6-x-x-x-6-6--------
4--7-x-x-x-x-x-x-x-x-7-x-x-x-7-x-x-x-7-7--------
5--4-x-x-x-x-x-x-x-x-4-x-x-x-4-x-x-x-4-4--------
6--5-x-x-x-x-x-x-x-x-5-x-x-x-5-x-x-x-5-5--------


Intro Part 2
Guitar 1
1-----------------------------------------------
2-----------------------------------------------
3----------------6-----7-----6-----4------------
4---7------9-----0-X8--0-X4--0-X2--0-X4---------
5---0-X14--0-X2---------------------------------
6-----------------------------------------------  X2
End On 4---7--
       5---0--

Verse 
Guitar 1 (Palm Muted)
1-------------------------------------------------------------------
2-------------------------------------------------------------------
3-------------------------------------------------------------------
4---9-9-9-9-----9-9-9-9-----9-9-9-9-----9-9-9-9-----7-7-7-7---------
5---7-7-7-7-X4--6-6-6-6-X4--7-7-7-7-X4--6-6-6-6-X2--0-0-0-0-X2------
6------------------------------------------------------------------- X2
[ Tab from: http://www.guitartabs.cc/tabs/j/jumpstart/8_days_a_week_tab.html ]
Verse
Guitar 2  (Palm Mute)
1-------------------------------------------------------
2-------------------------------------------------------
3-------------------------------------------------------
4-------------------------------------------------------
5---7-7-7-7-----9-9-9-9-----7-7-7-7-----9-9-9-9---------
6---0-0-0-0-X4--7-7-7-7-X4--0-0-0-0-X4--7-7-7-7-X4------  X2

Chorus
Guitar 1
1-------------------------------------------------------
2-------------------------------------------------------
3-------------------------------------------------------
4---9-----9-----7---------------------------------------
5---7-X8--6-X8--0-X8---9--------------------------------
6----------------------7-X8-----------------------------

Chorus
Guitar 2 (Both on 7th fret)
Chord Progression: E X8, B X8, E X8, B X8.

Bridge
Guitar 2
1-----------------------------------------------------
2-----------------------------------------------------
3---9-9-9-9-9-9-9-9-9-9-9-9-9-9-9-9-------------------
4---x-x-x-x-x-x-x-x-x-x-x-x-x-x-x-x-------------------
5---7-7-7-7-7-7-7-7-7-7-7-7-7-7-7-7-------------------
6-----------------------------------------------------

Solo
Guitar 1
1---0-0-5-0-4-0-2-0-0-0-5-0-4-0-2-0-0-0---------  
2-----------------------------------------------
3-----------------------------------------------
4-----------------------------------------------
5-----------------------------------------------
6-----------------------------------------------  X2

Guitar 2 (Palm Muted)
1--------------------------------------------------------------------------
2--------------------------------------------------------------------------
3--------------------------------------------------------------------------
4--------------------------------------------------------------------------
5---7-7-7-7-7-7-7-7-7-7-7-7-7-7-7-7-7-7-7-7-7-7-7-7-7-7-7-7-7-7-7-7----------------------------------------
6---0-0-0-0-0-0-0-0-0-0-0-0-0-0-0-0-0-0-0-0-0-0-0-0-0-0-0-0-0-0-0-0--------  X2


Intro 1
Intro 2
Verse
Chorus
Bridge
Verse
Chorus
Intro 1
Solo
Bridge
Chorus
Intro 2

Comments