July Productions - She Said Chords & Tabs

 

She Said Chords & Tabs

July Productions Chords & Tabs

Version: 1 Type: Tab 0 ratings
1 star 2 stars 3 stars 4 stars 5 stars
comments

She Said Tab

"She Said"
Performed by July Productions
>From the album available at www.julyproductions.com
Music by: M. July
Lyrics by: M. July
(c) 2002 July Productions
----------
Tabbed by Michael July 

Tab key:

h    =3D hammer on
p    =3D pull off
/    =3D slide
b    =3D bend=20
P.M. =3D Palm Mute

Chorus (Acoustic)

e:--3--3-3-3--3-3/5--5--5-5/7--7--7-7--8--7--5--3--3--3-3-3--3-3-3--3--3-=
B:--3--3-3-3--3-3/5--5--5-5/7--7--7-7--8--7--5--3--3--3-3-3--3-3-3--3--3-=
D:--0--0-0-0--0-0----0--0-0-0--0--0-0--0--0--0--0--0--0-0-0--0-0-0--0--0-=
G:--0--0-0-0--0-0----------------------------------2--2-2-2--2-2-2--2--2-=
A:--2--2-2-2--2-2----------------------------------3--3-3-3--3-3-3--0--0-=
E:--3--3-3-3--3-3--------------------------------------------------------=

3-3--3-3-3--
3-3--3-3-3--
0-0--0-0-0--
2-2--2-2-2--
0-0--0-0-0--
------------


Riff 1 (w/Distortion)
[ Tab from: http://www.guitartabs.cc/tabs/j/july_productions/she_said_tab.html ]
e:-------------------------------------------------------------
B:-------------------------------------------------------------
D:-------------------------------------------------------------
G:--5------5--5----5--12--10--9---9--9h10p9--7---9--7---4---5--
A:-----5h7------5----------------------------------------------
E:-------------------------------------------------------------


Verse 1 (Acoustic & Electric w/ Distortion)

e:------------------------------------------------------------------
B:------------------------------------------------------------------
D:------------------------------------------------------------------
G:----5------5------5-------10---------4------4---------5------5----
A:------------------------------------------------------------------
E:--3---3--3----5h7-----7h8-----8-7//2---2--2----2--2h3---3--3---0--


Riff 2 (w/Delay, Chorus & Reverb)

e:-----------------------------------------------------------------
B:-------------------------12--------------------------------------
D:--12--11--12-----12--14------------------------------------------
G:--12--12--10-----12--12--10--------------------------------------
A:-----------------------------------------------------------------
E:-----------------------------------------------------------------


Riff 3 (w/Delay, Chorus & Reverb)

e:---------------------------------------------15--
B:------------------------------------------15-----
D:--12-11-12-12/14-12-14--14/16-14-16-17-16--------
G:-------------------------------------------------
A:-------------------------------------------------
E:-------------------------------------------------
Comments