July Productions - Our Story Chords & Tabs

 

Our Story Chords & Tabs

July Productions Chords & Tabs

Version: 1 Type: Tab 0 ratings
1 star 2 stars 3 stars 4 stars 5 stars
comments

Our Story Tab

"Our Story (It Could Be Tonight)"
Performed by July Productions
>From the album available at www.julyproductions.com
Music by: M. July
Lyrics by: M. July
(c) 2002 July Productions
----------
Tabbed by Michael July 

Tab key:

h    =3D hammer on
p    =3D pull off
/    =3D slide
b    =3D bend=20
P.M. =3D Palm Mute

**Tuning**: DROP C (bottom string tuned down to C)
**Tip** Use Your Thumb to Fret All Bottom C Notes
Intro Riff 1 (w/Chorus, Reverb & Delay)

e:--------5-3-3/5----5---------------------5-3-3/5--5-5h6p5-5------------=
B:------6--------------6-----------------6--------------------6----------=
D:----7------------------7-------------7------------------------7--------=
G:--8----------------------5-3-3/5---8----------------------------5-3-3/5=
A:-----------------------------------------------------------------------=
C:-----------------------------------------------------------------------=

Intro Riff 2 (Clean)

e:-------------------
B:-------------------
D:-------------------
G:-------------------
A:--3-3--5--3--5--3--
C:-------------------

Intro Swell (w/Wah Pedal & Chorus)

e:--5---3---5---3--
B:--6---3---6---3--
D:--7---3---7---3--
G:--8---5---8---5--
A:-----------------
C:--7---5---7---5--

Intro Riff 3 (Acoustic)
[ Tab from: http://www.guitartabs.cc/tabs/j/july_productions/our_story_tab.html ]
e:----------5---5------------5---5------
B:---------6------6---------6------6----
D:--------7----------------7---------7--
G:-------8----------------8-------------
A:--------------------------------------
C:--7-----------------7-----------------

Verse 1 (Clean)

e:-----5-------5-------5----5-------------------------------
B:-----6-------6-------6----6-------6----6------6----5h6p5--
D:-----7-------7-------7----7-------5----5------5----5------
G:-----8-------8-------8----8-------5----5------5----5------
A:----------------------------------------------------------
C:--7-------5------7-7----7------5-----5----5-5----5--------

Verse Swell (w/Wah Pedal & Chorus)

e:--5---------5-------
B:--6----6----6----6--
D:--7----5----7----5--
G:--8----5----8----5--
A:--------------------
C:--7----5----7----5--

Chorus Riff 1 (w/Distortion & Boss OC-2)

e:------------------------------------------------
B:------------------------------------------------
D:------------------------------------------------
G:------------------------------------------------
A:------------------------------------------------
C:--12//--3-3-3-3--5-5-5-5--7-7-7-7--10-10-10-10--

Chorus Riff 2 (Clean)

e:------1--------1---------1-----1--
B:------3--------3---------3-----3--
D:------2--------2---------2-----2--
G:------3--------3---------3-----3--
A:--1--------1-------1--1-----1-----
C:----------------------------------

Chorus Swell (w/Wah Pedal & Chorus)

e:--1-----1--
B:--3-----3--
D:--2-----2--
G:--3-----3--
A:--1-----1--
C:-----------

Chorus Rhythm (w/Wah Pedal)

e:--x-x-x-x--
B:--x-x-x-x--
D:--x-x-x-x--
G:--x-x-x-x--
A:--x-x-x-x--
C:-----------
Comments