July For Kings - Normal Life Chords & Tabs

 

Normal Life Chords & Tabs

July For Kings Chords & Tabs

Version: 1 Type: Tab 0 ratings
1 star 2 stars 3 stars 4 stars 5 stars
comments

Normal Life Tab

July For Kings Official Page:  http://www.julyforkings.com
July For Kings Country Of Origin:  USA

Artist:  July For Kings
Song: Normal Life
Tabbed By:  Trent Adams

I changed my original tab after emailing Travis Delaney, the guitarist for “July
For Kings” and he corrected my first attempt!  Enjoy!

Drop “D” Tuning

|-----------------------------------------------------|
|-----------------------------------------------------|
|-----------------------------------------------------|
|-7-7---9---7-7-7-----9-----repeat----(s) 9-11--------|
|-0-0---0---0-0-0-----0-------------------------------|
|-----------------------------------------------------|
 
|-----------------------------------------------------|
|-----------------------------------------------------|
|-----------------------------------------------------|
|------9---------9------9-----------(s) 9-11----------|
|-0-0----0-0-0----0-0-----0-0-0-----------------------|
|-0-0----0-0-0----0-0-----0-0-0-----------------------|
 
[ Tab from: http://www.guitartabs.cc/tabs/j/july_for_kings/normal_life_tab.html ]
VERSES
|-----------------------------------------------------|
|-----------------2-2------------3-3-----3-3-3--------|
|------------------------6-6-----2-2-----2-2-2--------|
|-----------------4-4----7-7----------------- --------|
|-----------------4-4----7-7-----0-0-----0-0-0--------|
|--------------------------------0-0-----0-0-0--------|
“I stood under ohio's skies.......”
 
RIGHT BEFORE CHORUS
|-----------------------------------------------------|
|-----------------------------------------------------|
|-----------------------------------------------------|
|-let ring----------------------let ring--------------|
|-(0)----------4-4---7-7------(0)---------------------|
|-(0)----------4-4---7-7------(0)---------------------|
“in the backyard playing on the swingset.....”
 
CHORUS 
|-----------------------------------------------------|
|-----------------------------------------------------|
|-----------------------------------------------------|
|-----------------------------------------------------|
|-9-9----0-0-----7-7-----2-2--------------------------|
|-9-9----0-0-----7-7-----2-2--------------------------|
“I just wanna live a normal life......”
 
BRIDGE
 
|-----------------------------------------------------|
|-----------------------------------------------------|
|-----------------------------------------------------|
|-----------------------------------------------------|
|-2----4------7-----0-0-------------------------------|
|-2----4------7-----0-0-------------------------------|
“I'll watch the kids until you get home....”
 
|-----------------------------------------------------|
|-------------------------------sliding up...---------|
|------------------------------9--11---14-------------|
|------------------------------x---x----x-------------|
|-2----4------7-----0-0--------7---9---12-------------|
|-2----4------7-----0-0-------------------------------|
“coming back from work on friday....”
 
|-----------------------------------------------------|
|-------------------------------sliding up..----------|
|------------------------------4---6---9--------------|
|------------------------------x---x---x--------------|
|-0----4------7-----0-0--------2---4---7--------------|
|-0----4------7-----0-0-------------------------------|
“I'll make the bed, you feed the cat......”
Comments