Juliette And The Licks - American Boy Chords & Tabs

 

American Boy Chords & Tabs

Juliette And The Licks Chords & Tabs

Version: 1 Type: Bass Tab

American Boy Bass Tab

   
AMERICAN BOY
Juliette And The Licks

Taken from the Fiddler EP ...Like A Bolt Of Lightning (2004)

Transcribed by: Damian Pamminger (TwitcheD_85@hotmail.com)

Standard tuning: E A D G

Pause

| ---------------------|
| ---------------------|
|-5-5-5----------------|
|-------5---5-5-3b^----|

|-----------------------| ----------|------------------------------------------|
|-----------------------| --REPEAT- |------------------------------------------|
|-----------------------|-five-more-|---------------------5-5-5----------------|
|-5---5-0-3b^--5-5-3b^-| --times---|-5---5-0-3b^--5-5-3--------5---5-5-3b^-----|

|-----------------------| ----------|----------------------------------------|
|-----------------------| --REPEAT- |----------------------------------------|
|-----------------------|-five-more-|---------------------5-5-5--------------|
|-5---5-0-3b^--5-5-3b^-| --times---|-5---5-0-3b^--5-5-3--------5---5-5-5-----|

|----------------- |----------|----------------- |----------------- |--------------|
|----------------- |--REPEAT--|----------------- |----------------- |--REPEAT------|
|----------------- |-two-more-|----------------- |----------------- |-two-more-----|
|-0---0-3-3-5-5-0-|--times--- |-0-3-3-0-2-0-1-0-|-0---0-3-3-5-5-0-|---times--------|

|--------------------|-----------------------|---------|----------------------|
|--------------------|-----------------------|--REPEAT-|----------------------|
|--------------------|-----------------------|---------|----------------------|
|-0---0-3-3-5-5-3b^-|-5---5-0-3b^--5-5-3b^-|---------|-5---5-0-3b^--5-5-3-----|

| ---------------------|
| ---------------------|
|-5-5-5----------------|
|-------5---5-5-3b^----|

|-----------------------| ----------|------------------------------------------|
|-----------------------| --REPEAT- |------------------------------------------|
|-----------------------|-five-more-|---------------------5-5-5----------------|
|-5---5-0-3b^--5-5-3b^-| --times---|-5---5-0-3b^--5-5-3--------5---5-5-3b^-----|

|-----------------------| ----------|----------------------------------------|
|-----------------------| --REPEAT- |----------------------------------------|
|-----------------------|-five-more-|---------------------5-5-5--------------|
|-5---5-0-3b^--5-5-3b^-| --times---|-5---5-0-3b^--5-5-3--------5---5-5-5-----|
[ Tab from: http://www.guitartabs.cc/tabs/j/juliette_and_the_licks/american_boy_btab.html ]
|----------------- |----------|----------------- |----------------- |--------------|
|----------------- |--REPEAT--|----------------- |----------------- |--REPEAT------|
|----------------- |-two-more-|----------------- |----------------- |-two-more-----|
|-0---0-3-3-5-5-0-|--times--- |-0-3-3-0-2-0-1-0-|-0---0-3-3-5-5-0-|---times--------|

|--------------------| ----------------------------------------------------------|
|--------------------| ----------------------------------------------------------|
|--------------------| ----------------------------------------------------------|
|-0---0-3-3-5-5-3b^-|-5---5-0-3b^--5-5-3b^-5---5-0-3b^--5-5-3b^-5---5-0-3b^------|

|--------------------------|----------|------------------------------------------|
|--------------------------|--REPEAT--|------------------------------------------|
|-------5-5-5------------- |-two-more-|------------------------------------------|
|-5-5-3-------5---5-5-3b^-|---times---|-5---5-0-3b^--5-5-3b^-5---5-0-3b^--5-5----|

|----------------------------------------- | -----------------------------------|
|----------------------------------------- | -----------------------------------|
|-----------------------3-5-5-3-----------| ------------------------------------|
|-3b^-5---5-0-3b^--5-5---------5---5-5-5-|-0---0-3-3-5-5-0-0---0-3-3-5-5-0------|

| --------------------------------------|----------|
| --------------------------------------|-REPEAT---|
| --------------------------------------|----------|
|-0---0-3-3-5-5-0-0---0-3-3-0-2-0-1-0-|------------|

|------------------|----------|------------------|------------------|------------|
|------------------|--REPEAT--|------------------|------------------|--REPEAT----|
|------------------|-two-more-|------------------| -----------------|-two-more---|
|-0-0-0-3-3-5-5-0-|---times---|-0-3-3-0-2-0-1-0-|-0-0-0-3-3-5-5-0-|--times-------|

|--------------------| ----------------------------------------------------------|
|--------------------| ----------------------------------------------------------|
|--------------------| ----------------------------------------------------------|
|-0-0-0-3-3-5-5-3b^-|-5---5-0-3b^--5-5-3b^-5---5-0-3b^--5-5-3b^-5---5-0-3b^------|

| ------------------------- |----------|---------------------------------------------|
| ------------------------- |--REPEAT--|---------------------------------------------|
|-------5-5-5------------- |-two-more-|----------------------------------------------|
|-5-5-3-------5---5-5-3b^-|--times--- |-5---5-0-3b^--5-5-3b^-5---5-0-3b^-5-5-3b^-----|

|------------------------------------------------------------------------------------|
|------------------------------------------------------------------------------------|
|---------------------5-5-5--------5-5-5--------5------------------------------------|
|-5---5-0-3b^--5-5-3-------5-------------5-----------5-------------------------------|