Julieta Venegas - Amores Perros Chords & Tabs

 

Amores Perros Chords & Tabs

Julieta Venegas Chords & Tabs

Version: 1 Type: Tab 0 ratings
1 star 2 stars 3 stars 4 stars 5 stars
comments

Amores Perros Tab

   
Song: Amores Perros (Me Van a Matar)
Artist: Julieta Venegas
Album: Amores Perros Soundtrack
Tab By: Greg Smith (gts5098@hotmail.com)

Standard Tuning (EADGBE)
Cappo on 2nd Fret

* = Accent
. = the beat (1, 2, 3, 4, etc)


[ RIFF A ]
     *       *         *       *         *       *         *       *   
 .   .   .   .     .   .   .   .     .   .   .   .     .   .   .   .
-----0-----0-0-0-|-----0-----0-0-0-|-----0-----0-----|-----3-----3---3-
-----2-----2-2-2-|-----2-----2-2-2-|-----5-----5-5-5-|-----3-----3-3-3-
-----2-----2-2-2-|-----1-----1-1-1-|-----5-----5-5-5-|-----4-----4-4-4-
-----2-----2-2-2-|-2---2-----2-2-2-|-3---3-----3-3-3-|-5---5-----5-5-5-
-0---------0-0-0-|-0---------0-0-0-|-0---------0-0-0-|-5---5-----5-5-5-
-------------0---|-0-----------0---|-0-----------0---|-3-----------3-3-


[ Riff B ]
 *     *           *     *           *     *           *     *           
 .   .   .   .     .   .   .   .     .   .   .   .     .   .   .   .
-0---0-0---0-0-0-|-3---3-3---3-3-3-|-3---3-3---3-3-3-|-1---1-1---1-1-1-|
-1---1-1---1-1-1-|-3---3-3---3-3-3-|-3---3-3---3-3-3-|-1---1-1---1-1-1-|
-0---0-0---0-0-0-|-0---0-0---0-0-0-|-0---0-0---0-0-0-|-2---2-2---2-2-2-|
-2---2-2---2-2-2-|-0---0-0---0-0-0-|-0---0-0---0-0-0-|-3---3-3---3-3-3-|
-3---3-3---3-3-3-|-2---2-2---2-2-2-|-2---2-2---2-2-2-|-3---3-3---3-3-3-|
-0---0-0---0-0-0-|-3---3-3---3-3-3-|-3---3-3---3-3-3-|-1---1-1---1-1-1-|
[ Tab from: http://www.guitartabs.cc/tabs/j/julieta_venegas/amores_perros_tab.html ]
 *     *           *     *           *     *           *     *           
 .   .   .   .     .   .   .   .     .   .   .   .     .   .   .   .     .
-1---1-1---1-1-1-|-0---0-0---0-0-0-|-0---0-0---0-0-0-|-3---3-3---3-3-3-|-0--
-1---1-1---1-1-1-|-1---1-1---1-1-1-|-1---1-1---1-1-1-|-3---3-3---3-3-3-|-2--
-2---2-2---2-2-2-|-0---0-0---0-0-0-|-0---0-0---0-0-0-|-0---0-0---0-0-0-|-2--
-3---3-3---3-3-3-|-2---2-2---2-2-2-|-2---2-2---2-2-2-|-0---0-0---0-0-0-|-2--
-3---3-3---3-3-3-|-3---3-3---3-3-3-|-3---3-3---3-3-3-|-2---2-2---2-2-2-|-0--
-1---1-1---1-1-1-|-0---0-0---0-0-0-|-0---0-0---0-0-0-|-3---3-3---3-3-3-|----


Riff A x 12 (Intro, Verse 1, Verse 2)

Riff B

Riff A for the rest of the song.


Lyrics
=======

Verse 1

  T eres mi ala que siempre he buscado
  me dijo un dia y yo sonrio satisfecha
  y confiada en que lo nuestro es la verdad
  y confiada en que lo nuestro es la verdad

Verse 2

  Sus ojos decian para siempre ese da
  hasta que un da, ese da llego
  lo dicho lo va comiendo lento el sol
  cerca de el mar enbarcan a eternidad

  que nunca habra nada que nos separe
  siempre estas a mi lado

Verse 3

  Acaso ser para siempre has olvidado
  dijiste un da solo escucho yo
  lo dicho lo va poniendo lento el sol
  cerca de el mar enbarcan a eternidad

Acapella

  Porque tus amores perros me van a matar
  sin haberme dado la felicidad

Chorus

  Tus amores perros me van a matar
  sin haberme dado siquiera la felicidad
Comments