Juliana Theory - You Always Say Goodnight Chords & Tabs

 

You Always Say Goodnight Chords & Tabs

Juliana Theory Chords & Tabs

Version: 1 Type: Tab 0 ratings
1 star 2 stars 3 stars 4 stars 5 stars
comments

You Always Say Goodnight Tab

   
Standard Tuning
Figure out the strum pattern for yourself
^ = bend up
For Bb use your pinky to cover to 3's and your index for the 1


Intro/Verse:

      Dm          Bb         G          C           F
|------1---------------------3----------0-----------1-------|
|------3----------3----------3----------1-----------1-------|
|------2----------3----------0----------0-----------2-------| (X6)
|------0----------3----------0----------2-----------3-------|
|-----------------1----------2----------3-------------------|
|----------------------------3------------------------------|


Chorus:

        Bb            Dm             Bb            Dm
|----------------------1----------------------------1-------|
|--------3-------------3-------------3--------------3-------|
|--------3-------------2-------------3--------------2-------| (X1)
|--------3-------------0-------------3--------------0-------|
|--------1---------------------------1----------------------|
|-----------------------------------------------------------|

REPEAT VERSE AND CHORUS


Solo: 

|-----------------------------------------------------------|
|--3---3/6--5--3---(X2)-----3---3/6--5--3---(X2)------------|
|----3------------------------2-----------------------------| (X4)
|-----------------------------------------------------------|
|-----------------------------------------------------------|
|-----------------------------------------------------------|

[ Tab from: http://www.guitartabs.cc/tabs/j/juliana_theory/you_always_say_goodnight_tab.html ]
|-----------------------------------------------------------|
|-----------5^--5-----------------5^--5--6--8--8^--8--6--5--|
|-----5--7--------5--7------5--7----------------------------|
|-/7--------------------/7----------------------------------|
|-----------------------------------------------------------|
|-----------------------------------------------------------|


|--------------------13-13-13-13--------------------15-15-15-15-|
|11-10-11-10-11-10-11-----------11-10-11-10-11-10-11------------|
|---------------------------------------------------------------|
|---------------------------------------------------------------|
|---------------------------------------------------------------|
|---------------------------------------------------------------|


|-13-15^-15^-15^-15^-13---------------------------------------|
|-----------------------15-13h15p13-14-14/10-12^-12-10--------|
|------------------------------------------------------12-----|
|-------------------------------------------------------------|
|-------------------------------------------------------------|
|-------------------------------------------------------------|


|---------------------------------------------------------------|
|---------------------------------------------------------------|
|-------------------------------9--10--9--10--------------------|
|-8--7--8/10--8--10/12--10--12----------------------------------|
|---------------------------------------------------------------|
|---------------------------------------------------------------|


|---------------------------------------------------------------|
|------------------10----10--11--13--11--13--11--13^--13--11--10|
|--10--12--10--12-----12----------------------------------------|
|---------------------------------------------------------------|
|---------------------------------------------------------------|
|---------------------------------------------------------------|

I will update when i finish this. its the same notes used over again
so it wont be too hard for you to do on your own either.
Comments