Juliana Theory - Is Patience Still Waiting Chords & Tabs

 

Is Patience Still Waiting Chords & Tabs

Juliana Theory Chords & Tabs

Version: 1 Type: Tab 0 ratings
1 star 2 stars 3 stars 4 stars 5 stars
comments

Is Patience Still Waiting Tab

   
"Is Patience Still Waiting?" - Julianna Theory
Tabbed by Sean DeLonge

(Tune the E down to a D)

Intro and Verse
e|---------------------------------------------------------------------------|
B|---------------------------------------------------------------------------|
G|----------7777---------7777------------------------------------------------|
D|-0-0-0-0--7777-0-0-0-0-7777-9-9-9-9-9-9-9-9--7-----------------------------|
A|-0-0-0-0--5555-0-0-0-0-5555-9-9-9-9-9-9-9-9--7-----------------------------|
D|-0-0-0-0-------0-0-0-0------9-9-9-9-9-9-9-9--7-----------------------------|

Chorus
e|---------------------------------------------------------------------------|
B|---------------------------------------------------------------------------|
G|-9--------------------7-------------------------------7--9-----------------|
D|-x--------------------x------4/5/4-7------------------x--x-----------------|
A|-7--------------------5------------x------------------5--7-----------------|
D|-----------------------------------7---------------------------------------|
  
[ Tab from: http://www.guitartabs.cc/tabs/j/juliana_theory/is_patience_still_waiting_tab.html ]
e|---------------------------------------------------------------------------|
B|---------------------------------------------------------------------------|
G|-9-9-9-9-9-9-7-7-7-7-6-----------------------------------------------------|
D|-x-x-x-x-x-x-x-x-x-x-x-----------------------------------------------------|
A|-7-7-7-7-7-7-5-5-5-5-4-----------------------------------------------------|
D|---------------------------------------------------------------------------|

e|---------------------------------------------------------------------------|
B|---------------------------------------------------------------------------|
G|-77-77-77-77---------------------------------------------------------------|
D|-77-77-77-77---00--00--44--44--55--55--00--00------------------------------|
A|-55-55-55-55---00--00--44--44--55--55--00--00------------------------------|
D|---------------00--00--44--44--55--55--00--00------------------------------|

Solo Lead Part
e|---------------------------------------------------------------------------|
B|---------------------------------------------------------------------------|
G|-11~-~-~--6~-7-9------------------9-7--------------------------------------|
D|--x~-~-~--x~-x-x--------end with--x-x--------------------------------------|
A|--9~-~-~--4~-5-7------------------7-5--------------------------------------|
D|---------------------------------------------------------------------------|
Comments