Juliana Theory - If I Told You This Was Killing Me Would You Stop Chords & Tabs

 

If I Told You This Was Killing Me Would You Stop Chords & Tabs

Juliana Theory Chords & Tabs

Version: 2 Type: Tab 0 ratings
1 star 2 stars 3 stars 4 stars 5 stars
comments

If I Told You This Was Killing Me Would You Stop Tab

FOR 2 GUITARS

Song: “If I Told You This Was Killing Me Would You Stop”
Album: Emotion Is Dead
Band: The Juliana Theory
Tabbed By: Trailer Bill

*Guitar1-> use a pod or distorter to get wave distortion.
*Guitar2-> crank distortion but don’t over do it.

Intro: (x6) Guitar1 only first 2.
E|--------------------------------------------------------------------
B|--------------------------------------------------------------------
G|---2-2-2-2-2-2-2-2-------------------5-5-5-5-5-5-5-5-5-5-5-5-5-5-5-5
D|---2-2-2-2-2-2-2-2--3-3-3-3-3-3-3-3--5-5-5-5-5-5-5-5-5-5-5-5-5-5-5-5
A|---0-0-0-0-0-0-0-0--3-3-3-3-3-3-3-3--3-3-3-3-3-3-3-3-3-3-3-3-3-3-3-3
E|--------------------1-1-1-1-1-1-1-1---------------------------------

Transition: (x2) Guitar2 only 
E|--------------------------------------------------------------------
B|--------------------------------------------------------------------
G|---2-2-—2--2-2--2------------------5-5--5--5-5--5--5-5--5--5-5--5
D|---2-2--2--2-2--2--3-3--3--3-3--3--5-5--5--5-5--5--5-5—-5--5-5--5
A|---0-0--0--0-0--0--3-3--3--3-3--3--3-3--3--3-3--3--3-3--3--3-3--3
E|-------------------1-1--1--1-1--1---------------------------------
Bold = hammer…

Verse: (x2)
E|--------------------------------------------------------------------
B|--------------------------------------------------------------------
G|---2-2-2-2-2-2-2-2-------------------5-5-5-5-5-5-5-5-5-5-5-5-5-5-5-5
D|---2-2-2-2-2-2-2-2--3-3-3-3-3-3-3-3--5-5-5-5-5-5-5-5-5-5-5-5-5-5-5-5
A|---0-0-0-0-0-0-0-0--3-3-3-3-3-3-3-3--3-3-3-3-3-3-3-3-3-3-3-3-3-3-3-3
E|--------------------1-1-1-1-1-1-1-1---------------------------------

*SHUT YOUR MOUTH!
(x1)
E|---------
B|---------
G|---5-5-2-
D|---5-5-2-
A|---3-3-0-
E|---------


Chorus: (x2)
E|--------------------------------------------------------------------
B|--------------------------------------------------------------------
G|---2-2-2-2-2-2-2-2-------------------5-5-5-5-5-5-5-5-5-5-5-5-5-5-5-5
D|---2-2-2-2-2-2-2-2--3-3-3-3-3-3-3-3--5-5-5-5-5-5-5-5-5-5-5-5-5-5-5-5
A|---0-0-0-0-0-0-0-0--3-3-3-3-3-3-3-3--3-3-3-3-3-3-3-3-3-3-3-3-3-3-3-3
E|--------------------1-1-1-1-1-1-1-1---------------------------------

(x1)
E|------|
B|------|
G|---5--|
D|---5--|
A|---3--|
E|------|
*STOP: now you’re standing on your soap box yelling from the roof top!
[ Tab from: http://www.guitartabs.cc/tabs/j/juliana_theory/if_i_told_you_this_was_killing_me_would_you_stop_tab_ver_2.html ]
Chorus: (x2)
E|--------------------------------------------------------------------
B|--------------------------------------------------------------------
G|---2-2-2-2-2-2-2-2-------------------5-5-5-5-5-5-5-5-5-5-5-5-5-5-5-5
D|---2-2-2-2-2-2-2-2--3-3-3-3-3-3-3-3--5-5-5-5-5-5-5-5-5-5-5-5-5-5-5-5
A|---0-0-0-0-0-0-0-0--3-3-3-3-3-3-3-3--3-3-3-3-3-3-3-3-3-3-3-3-3-3-3-3
E|--------------------1-1-1-1-1-1-1-1---------------------------------


Transition: (x2) Guitar2 only
E|--------------------------------------------------------------------
B|--------------------------------------------------------------------
G|---2-2-—2--2-2--2------------------5-5--5--5-5--5--5-5--5--5-5—-5---
D|---2-2--2--2-2--2--3-3--3--3-3--3--5-5--5--5-5--5--5-5—-5--5-5—-5---
A|---0-0--0--0-0--0--3-3--3--3-3--3--3-3--3--3-3--3--3-3--3--3-3—-3---
E|-------------------1-1--1--1-1--1-----------------------------------
                    2nd time Gutar2:* scratch slide down…        
Chorus: (x2)
E|--------------------------------------------------------------------
B|--------------------------------------------------------------------
G|---2-2-2-2-2-2-2-2-------------------5-5-5-5-5-5-5-5-5-5-5-5-5-5-5-5
D|---2-2-2-2-2-2-2-2--3-3-3-3-3-3-3-3--5-5-5-5-5-5-5-5-5-5-5-5-5-5-5-5
A|---0-0-0-0-0-0-0-0--3-3-3-3-3-3-3-3--3-3-3-3-3-3-3-3-3-3-3-3-3-3-3-3
E|--------------------1-1-1-1-1-1-1-1---------------------------------
Let second time right

Guitar2: Outro: (x2)
E|--------------------------------------------------------------------
B|--------------------------------------------------------------------
G|---------2----------5----------2----------5-------------------------
D|-------2/---------5/---------2/---------5/--------------------------
A|---0-0-----0~-0-3-----3~-3-0-----0~-0-3-----3~~~--------------------
E|--------------------------------------------------------------------
Guitar1:  (x2)
E|---------------------------------------------------------------------
B|---------------------------------------------------------------------
G|---2-2-2-2-2-2-2-2--5-5-5-5-5-5-5-5--2-2-2-2-2-2-2-2--5-5-5-5-5-5-5-5
D|---2-2-2-2-2-2-2-2--5-5-5-5-5-5-5-5--2-2-2-2-2-2-2-2--5-5-5-5-5-5-5-5
A|---0-0-0-0-0-0-0-0--3-3-3-3-3-3-3-3--0-0-0-0-0-0-0-0--3-3-3-3-3-3-3-3
E|---------------------------------------------------------------------
*should be right, I cut out the very last part though to the recording.
Comments