Juliana Theory - Duane Joseph Chords & Tabs

 

Duane Joseph Chords & Tabs

Juliana Theory Chords & Tabs

Version: 2 Type: Tab 0 ratings
1 star 2 stars 3 stars 4 stars 5 stars
comments

Duane Joseph Tab

this tabs is actually write unlike the other bullshit tabs

there are heaps of finger movements at the start so were * this is add ur extra fingers to the same chord.

E/-----------/----------/-----/--------------------
B/-----------/----------/-----/--------------------
G/-----------/----------/--5--/--------------------  times 3 
D/--3-5*-7*--/--5-7*-3--/--3--/--2-3*-5*-----------
A/--5--------/--3----3--/--1--/--3-----------------
E/-----------/----------/-----/--------------------


E/-------------------------------------------------
B/-------------------------------------------------
G/--7----5----3----5-------------------------------
D/--7----5----3----5-------------------------------
A/--5----3----1----3-------------------------------
E/-------------------------------------------------
its practically the same chord progression the hole way through the song 
but with different rythms.


[ Tab from: http://www.guitartabs.cc/tabs/j/juliana_theory/duane_joseph_tab_ver_2.html ]
this part is played to the silence part
E/-------------------------------------------------
B/-------------------------------------------------
G/--7----5----3------------------------------------
D/--7----5----3------------------------------------
A/--5----3----1------------------------------------
E/-------------------------------------------------

 
then it comes in with
E/------------/-------------------------------------       hm =hammer on
B/------------/-------------------------------------       p =pull off 
G/------------/-------------------------------------
D/---2--------/---2--hm & p--3----------------------
A/---3--hm-5--/-------------------------------------
E/------------/-------------------------------------



then the ending 
E/--------------------------------------------------
G/--------------------------------------------------
B/--------------------------------------------------
D/--8-----------------------------------------------
A/--8-----------------------------------------------
E/--6--5*-------------------------------------------

this is only one guitar through the song the other 1 has octives and lead parts over the top of this guitar.
Comments