Julia - Perfect Chords & Tabs

 

Perfect Chords & Tabs

Julia Chords & Tabs

Version: 1 Type: Tab 0 ratings
1 star 2 stars 3 stars 4 stars 5 stars
comments

Perfect Tab

That song is one of their best so please play it, just listen to the song at
www.julia.co.at it's quite easy

Verse Riff:
Es|----0-0-0-----0-0-0-----0-0-0-----0-0-0-0-------------------------------|
Bb|----0-0-0-----0-0-0-----0-0-0-----0-0-0-0-------------------------------|
F#|----3-3-3-----6-6-6-----9-9-9-----4-4-4-4-------------------------------|
C#|----4-4-4-----7-7-7-----9-9-9-----5-5-5-5-------------------------------|
G#|----4-4-4-----7-7-7-----9-9-9-----5-5-5-5-------------------------------|
C#|----4-4-4-----7-7-7-----9-9-9-----5-5-5-5-------------------------------|

Chorus:                  Interlude to 2. Verse:   | other 2 times:
                                                  |
Es|---------------------------------------|---0---|------------------------|
Bb|---------------------------------------|---0---|------------------------|
F#|----------------------6-6-6-4-4-6-6----|---9---|------------------------|
C#|----4-4-4-4--0-0-0-0--7-7-7-5-5-7-7----|---9---|--4-4--0-0--9-999999----|
G#|----4-4-4-4--0-0-0-0--7-7-7-5-5-7-7----|---9---|--4-4--0-0--9-999999----|
C#|----4-4-4-4--0-0-0-0--7-7-7-5-5-7-7----|---9---|--4-4--0-0--9-999999----|

Post-Chorus:
Es|------------------------------------------------------------------------|
Bb|------------------------------------------------------------------------|
F#|------------------------------------------------------------------------|
C#|----2-2-2-2-2-2-2-2-5-5-5-5-5-4-4-4--9-9-9-9-9-9-9-9-10-10-10-10-10-5-5-|
G#|----2-2-2-2-2-2-2-2-5-5-5-5-5-4-4-4--9-9-9-9-9-9-9-9-10-10-10-10-10-5-5-|
C#|----2-2-2-2-2-2-2-2-5-5-5-5-5-4-4-4--9-9-9-9-9-9-9-9-10-10-10-10-10-5-5-|
[ Tab from: http://www.guitartabs.cc/tabs/j/julia/perfect_tab.html ]
Bridge:
Es|------------------------------------------------------------------------|
Bb|------------------------------------------------------------------------|
F#|------------------------------------------------------------------------|
C#|----4-4-4-----7-7-7-----9-9-9-----5-5-5-5-------------------------------|
G#|----4-4-4-----7-7-7-----9-9-9-----5-5-5-5-------------------------------|
C#|----4-4-4-----7-7-7-----9-9-9-----5-5-5-5-------------------------------|


End:
Es|------------------------------------------------------------------------|
Bb|------------------------------------------------------------------------|
F#|------------4-----------------------------------------------------------|
C#|--------2-----5---------5-------4--------9---9-----------10------5------|
G#|------2---2-----2-----5-------4--------9---9---9-9-----10-------5-------|
C#|----2-------------2-5-----5-4-----4--9-------------9-10----10--5--------|

Es|------------------------------------------------------------------------|
Bb|------------------------------------------------------------------------|
F#|------------4-----------------------------------------------------------|
C#|--------2-----5---------5-------4--------9---9-----------10----9--------|
G#|------2---2-----2-----5-------4--------9---9---9-9-----10---------------|
C#|----2-------------2-5-----5-4-----4--9-------------9-10----10-----------|

Sequence:

Verse                    (6x)
Chorus                   (4x)
Verse                    (4x)
Chorus                   (4x)
Post Chorus              (2x)
Bridge                   (2x)
Verse                    (4x)
Chorus                   (4x)
Post Chorus              (3x)
End                      (1x)
Comments