Jules Gary - Mad World Chords & Tabs

 

Mad World Chords & Tabs

Jules Gary Chords & Tabs

Version: 4 Type: Tab 1 rating
1 star 2 stars 3 stars 4 stars 5 stars
comments

Mad World Tab

   
Song             Mad World
Artist           Gary Jules (from the movie Donnie Darko)
Words and Music  Roland Orzabal from the Tears For Fears
                 album 'The Hurting'

#------------------------PLEASE NOTE---------------------------#
#     This file is the author's own work and represents their  #
#     interpretation of the song. You may only use this file   #
#     for private study, scholarship, or research.             #
#--------------------------------------------------------------#




Transcribed by squiremcguire

I heard this in the movie Donnie Darko. It is played
very gently on piano. I think this sounds ok tho - let me know.




Capo 2nd
All chord positions are relative to the capo

Intro

1     2     3     4    1     2     3     4

E---0------------------|------2-----------2---|
B------0--1-----1-----1|------3-----------3---|
G------------2-----0---|------2-----------2---|
D----------------------|4-----------4---------|
A0---------------------|----------------------|
E----------------------|----------------------|
Asus2    Am       Am7        Dmaj?


1     2     3     4    1     2     3     4

E---0------------------|2-----------2---------|
B------0--1-----1-----1|------------3---------|
G------------2-----0---|------2-----------2---|
D----------------------|0---------------------|
A0---------------------|----------------------|
E----------------------|----------------------|
Asus2    Am       Am7           D

verses

1     2     3     4    1     2     3     4
       All around.....familiar.............
E----------------------|----------------------|
B------1-----------1---|------1-----------1---|
G------2-----------2---|------0-----------0---|
D------2-----------2---|------2-----------2---|
A0-----------0---------|3-----------0---------|
E----------------------|----------------------|
          Am                      C

1     2     3     4    1     2     3     4
Worn out...............worn..................
E----------------------|----------------------|
B------0-----------0---|------3-----------3---|
G------0-----------0---|------2-----------2---|
D------0-----------0---|0-----------0---------|
A----------------------|----------------------|
E3-----------3---------|----------------------|
           G                      D


And so on until the last bit before the chorus......

1     2     3     4    1     2     3     4
       Hide my head.....drown my sorrow
E----------------------|----------------------|
B------1-----------1---|------1-----------1---|
G------2-----------2---|------0-----------0---|
D------2-----------2---|------2-----------2---|
A0-----------0---------|3-----------0---------|
E----------------------|----------------------|
          Am                      C
1     2     3     4    1     2     3     4
No tomorrow............no tomrrow
E----------------------|----------------------|
B------0-----------0---|----------------------|
G------0-----------0---|----------------------|
D------0-----------0---|0---------------------|
A----------------------|----------------------|
E3-----------3---------|----------------------|
           G


chorus
[ Tab from: http://www.guitartabs.cc/tabs/j/jules_gary/mad_world_tab_ver_4.html ]
1     2     3     4    1     2     3     4
       And I Find it....funny...........kinda.
E---0--------0--------0|---2--------2--------2|
B------1--------1------|------3--------3------|
G---------2--------2---|---------2--------2---|
D----------------------|0---------------------|
A0---------------------|----------------------|
E----------------------|----------------------|
          Am                    D

1     2     3     4    1     2     3     4
Sad....................dyin'..........
E---0--------0--------0|---2--------2--------2|
B------1--------1------|------3--------3------|
G---------2--------2---|---------2--------2---|
D----------------------|0---------------------|
A0---------------------|----------------------|
E----------------------|----------------------|
          Am                     D

end bit.............

1     2     3     4    1     2     3     4
Take...................circles......very very
E---0--------0--------0|---2--------2--------2|
B------1--------1------|------3--------3------|
G---------2--------2---|---------2--------2---|
D----------------------|0---------------------|
A0---------------------|----------------------|
E----------------------|----------------------|


1     2     3     4    1     2     3     4
             Mad        world
E---0------------------|------2-----------2---|
B------0--1-----1-----1|------3-----------3---|
G------------2-----0---|----------------------|
D----------------------|4-----------4---------|
A0---------------------|----------------------|
E----------------------|----------------------|
  Asus2   Am       Am7            Dmaj?
1     2     3     4    1     2     3     4
             Mad        world
E---0------------------|------2-----------2---|
B------0--1-----1-----1|------3-----------3---|
G------------2-----0---|----------------------|
D----------------------|0-----------0---------|
A0---------------------|----------------------|
E----------------------|----------------------|
  Asus2   Am       Am7          D




Am                  C
All around me are familiar faces,
G                D
worn out places, worn out faces,
Am                         C
Bright and early for their daily races,
G              D
going nowhere, going nowhere,
Am                          C
And their tears are filling up their glasses,
G              D
no expression, no expression,
Am                      C
Hide my head, I want to drown my sorrow,
G            D
no tomorrow, no tomorrow,

Am                    D
And I find it kind of funny,
                  Am
I find it kind of sad,
                        D
The dreams in which I'm dying
                        Am
are the best I've every had.
                  D
I find it hard to tell you,
                        Am
cause I find it hard to take,
                   D
when people run in circles,

it's a very, very
Asus2   Am    Am7    D
          Mad        world

Asus2   Am    Am7    D
          Mad        world

Children waiting for the day they feel good,
Happy birthday, happy birthday,
Made to feel the way that every child should
sit and listen, sit and listen.
Went to school and I was very nervous,
No one knew me, no one knew me,
Hello teacher, tell me what's my lesson,
look right through me, look right through me


Comments