Jules Gary - Mad World Chords & Tabs

 

Mad World Chords & Tabs

Jules Gary Chords & Tabs

Version: 2 Type: Tab 0 ratings
1 star 2 stars 3 stars 4 stars 5 stars
comments

Mad World Tab

   
====================================================
     Artist : Gary Jules
  Song Name : Mad World
 Album Name : Donnie Darko Soundtrack
  Tabbed By : Devin Legge >> devlegge@hotmail.com
====================================================

A nice, sad song. I only heard it for the first time last night and even though it's done on piano, I wanted to play it on guitar, it's a nice song, so here it is tabbed out guitar version. Really nice song from the Donnie Darko soundtrack. Here it is..

[ Tab from: http://www.guitartabs.cc/tabs/j/jules_gary/mad_world_tab_ver_2.html ]
intro/course
[-----8------------------------------8----------------
[---9---9-8-9---8-----------------9----9-8---8-9-11~--
[-------------8---8---10---10--------------8----------
[-------------------8----8----------------------------
[-----------------------------------------------------
[-----------------------------------------------------

verse
[---------------------------------------
[--------------1---1------------3---3---
[-----1---1--1---1-----3---3--3---3-----
[---3---3------------5---5--------------
[---------------------------------------
[---------------------------------------


pre-course
[-----------------------
[---------------3---3---
[-----1---1---3---3-----
[---3---3---------------
[-----------------------
[-----------------------



====================
 / : slide up
 \ : slide down
 b : bend
 r : release bend
 h : hammer on
 p : pull off
 + : hold
 ^ : mute
 t : tap
 ~ : vibrato
 x : dead string
====================
Comments