Jukebox Heroes - Rachel Chords & Tabs

 

Rachel Chords & Tabs

Jukebox Heroes Chords & Tabs

Version: 1 Type: Tab 0 ratings
1 star 2 stars 3 stars 4 stars 5 stars
comments

Rachel Tab

"RACHEL"
its a good song 
JUKEBOX HEROES ALL THE WAY!!!

E----------------------------------------------------I
B----------------------------------------------------I
G----------------------------------------------------I
D-----5--5--------5--5---------2--2-------2--2-------I
A---5------5----5------5-----2------2---2------2-----I
E-3-----------3------------0----------0--------------I

E----------------------------------------------------I
B----------------------------------------------------I
G------5--5------------------------------------------I
D----5-------5------3--3--------3--3-----------------I
A--3--------------3------3----3------3---------------I
E---------------5-----------5------------------------I

E----------------------------------------------------I
B----------------------------------------------------I
G----------------------------------------------------I
D-----5--5----------5--5----------2--2--------2--2---I
A---5-------5----5--------5-----2------2----2------2-I
E-3------------3--------------0-----------0----------I
                              
E----------------------------------------------------I
B----------------------------------------------------I
G------5--5------------------------------------------I
D----5-------5------3--3--------3--3-----------------I
A--3--------------3------3----3------3---------------I
E---------------5-----------5------------------------I
[ Tab from: http://www.guitartabs.cc/tabs/j/jukebox_heroes/rachel_tab.html ]
E----------------------------------------------------I
B----------------------------------------------------I
G----------------------------5-----------------------I
D-5------------------2-------5-x7--7-----------------I
A-5-stroke hard 7X---2-x7----3-----7-x5--------------I
E-3------------------0-------------5-----------------I

E----------------------------------------------------I
B----------------------------------------------------I
G----------------------------------------------------I
D-----6-----6-----6------6------6-----6-----6-----6--I
A---7-----7-----7------7------7-----7-----7-----7----I
E-0-----0-----4------4------5-----5-----5-----5------I

E----------------------------------------------------I
B----------------------------------------------------I
G----------------------------------------------------I
D-----6-----6-----6------6------6-----6-----6-----6--I
A---7-----7-----7------7------7-----7-----7-----7----I
E-0-----0-----4------4------5-----5-----5-----5------I

E----------------------------------------------------I
B----------------------------------------------------I
G----------------------------5-----------------------I
D-5------------------2-------5-x7--7-----------------I
A-5-stroke hard 7X---2-x7----3-----7-x5--------------I
E-3------------------0-------------5-----------------I

E----------------------------------------------------I
B----------------------------------------------------I
G----------------------------5-----------------------I
D-5------------------2-------5-x7--7-----------------I
A-5-stroke hard 7X---2-x7----3-----7-x5--------------I
E-3------------------0-------------5-----------------I


Comments