Jukebox Heroes - Never Chords & Tabs

 

Never Chords & Tabs

Jukebox Heroes Chords & Tabs

Version: 1 Type: Tab 0 ratings
1 star 2 stars 3 stars 4 stars 5 stars
comments

Never Tab

"never"
by jukebox heroes
ripped by dylan cannon
[ Tab from: http://www.guitartabs.cc/tabs/j/jukebox_heroes/never_tab.html ]
INTRO
[---------------------------------------------------------]
[---------------------------------------------------------]
[--------------77---55------------------------------------]
[----77---33---77---55---55-------repeat x2---------------]
[----77---33---55---33---55-------------------------------]
[----55---11-------------33-------------------------------]

[---------------------------------------------------------]
[---------------------------------------------------------]
[--------------77--------55-------------------------------]
[----77---33---77---55---55------repeat x2----------------]
[----77---33---55---55---33-------------------------------]
[----55---11--------33------------------------------------]

Pay in bits
Comments