Jude The Obscure - Wake Up My Love Chords & Tabs

 

Wake Up My Love Chords & Tabs

Jude The Obscure Chords & Tabs

Version: 2 Type: Tab 0 ratings
1 star 2 stars 3 stars 4 stars 5 stars
comments

Wake Up My Love Tab

   
hey,
whole song is the only way to go, it's pretty easy if you listen to the song
while playing. Enjoy!
Jude rules!
Dropped D

Intro
E-12p11---------11--------------11-0---------12p11----------11-----------|
B-------12p0-------0-14-11-0---------14-11-0-------12p0--------0-14-11-0-|
G------------13--------------13-------------------------13---------------|
D------------------------------------------------------------------------|
A------------------------------------------------------------------------|
D------------------------------------------------------------------------|

 ----11-0---------12p11---------11--------------11-0---------12p11------|
 ---------14-11-0-------12p0-------0-14-11-0---------14-11-0-------12p0-|
 -13-------------------------13--------------13-------------------------|
 -----------------------------------------------------------------------|
 -----------------------------------------------------------------------|
 -----------------------------------------------------------------------|

E----12-12-12-12-12-12-12-12-12-12-12-|
B-------------------------------------|
G-13----------------------------------|    Play 7 times
D-------------------------------------|
A-------------------------------------|
D-------------------------------------|

Pre-Chorus Lead (1:38)
E-12p11---------12b-12-12-12-12-12-12-12-|
B-------12p0-----------------------------|
G------------13--------------------------|   Play 4 times and let rhythm
D----------------------------------------|   take over
A----------------------------------------|
D----------------------------------------|

Pre-chorus Rhythm (1:38)
E-----------------------------|     E-------------------------|
B-----------------------------|     B-------------------------|
G-----------------------------| X4  G-------------------------| X4
D---------0-8-----------------|THEN D---------0-8---00000-0-0-|
A---------0-8-------0---------|     A---------0-8---00000-0-0-|
D-8p0-8p0-0-8---5p0-0-5p0-5p0-|     D-8p0-8p0-0-8---00000-0-0-|
[ Tab from: http://www.guitartabs.cc/tabs/j/jude_the_obscure/wake_up_my_love_tab_ver_2.html ]
Chorus (2:04)
E------------------------------------------------|
B------------------------------------------------|
G-777779999777777/9-11-11-999/14--14141414121212-| X2
D-XXXXXXXXXXXXXXX/X-X--X--XXX/X---X X X X X X X -|THEN
A-555557777555555/7-9--9--777s12--12121212101010-|
D------------------------------------------------|

(2:17)
E-----------------------------------------------------------------------|
B-----------------------------------------------------------------------|
G-7777799--------11111199/14--------7777799--------11111199/14-----1212-|
D-XXXXXXX--------X-X-X-XX/X---------XXXXXXX--------X-X-X-XX/X------X-X--|
A-5555577--------9-9 9-77/12--------5555577--------9-9-9-77/12-----1010-|
D-----------------------------------------------------------------------|

Bridge (2:44)
E-|-------|-----------------------|
B-|-------|-----------------------|
G-|-------|-----------------------| Play 8 times
D-|-------|-----------------------|(after X4, lead enters)
A-|-00000-|-000000----00--0-00000-|
D-|-00000-|-000000----00--0-00000-|

Bridge Lead (2:58)
E-12p11---------11---------|
B-------12p0-------0-14-11-|
G------------13------------| Play 4 times
D--------------------------|
A--------------------------|
D--------------------------|

Thats it!
--------------------------------------------------------------------------

Lyrics

wake up my love, she sleeps so peacefully... undisturbed, I still stutter and fumble 
doing everything I can to leave you be, tripping over words, and falling head over heels, 
saves us to dream a little longer, wake up my love, no you better stay asleep, I just
don't know what to do any more, falling forward I want pupils to dilate from rays of sun
momentarily by what saves us to dream a little bit longer, turn to peace and let this
brightness illuminate such limbs that fragrant and aura like no other, it saves us all
to dream a little bit longer, please don't ever stumble, please don't ever break for me,
I want pupils to dilate, save us all to dream a little longer.

---------------------------------------------------------------------------
Comments