Judd James - Mirror Image Chords & Tabs

 

Mirror Image Chords & Tabs

Judd James Chords & Tabs

Version: 1 Type: Tab 0 ratings
1 star 2 stars 3 stars 4 stars 5 stars
comments

Mirror Image Tab

   
Intro

E-----2---2-----2-----2-------4----4-----4-----4---------2-----2-----2----2-------E
B-------3----3-----------3-------5-----5-----------5--------3-----3----------3-----B
G-2----------------2--------4----------------4----------2-----------------2-------2--G
D---------------------------------------------------------------------------------------D
A---------------------------------------------------------------------------------------A
E---------------------------------------------------------------------------------------E

E----2------2-----2-----2---
B--------3-----3-----------3
G-2------------------2------
D----------------------------
A----------------------------
E-----------------------------

Verse 1

	D               Dmaj7
	I look into the mirror
	            Em  G A7
	And I don’t see myself
	D               Dmaj7
	Thoughts are unclear cause
	    Em  G    A7 
	I’m somebody else
        D       Dmaj7
	So many hours
	Em    G     A7
	Alone in my room
	D                 Dmaj7
	My mind’s growing sour
	          Em G  A7
	And it’ll be my doom

INTRO TO CHORUS

E-0-2-3-3-3-3-
B----------------
G----------------
D----------------
A----------------
E----------------

Chorus:
	
	D          C      Eb  D 
	There is a mirror i   mage
	C      A#        C
	That reflects my face
	    D       C     Eb    D
	But it does not reflect me
	C    A#   C
        Even by a trace, yeah yeah
        G#              G          F#         G   Em
        I don’t know if I can keep up at this pace

E----2----2----2----2---
B------3----3----------3-
G-2---------------2------
D-------------------------
A-------------------------
E--------------------------

Verse 2

	D	           Dmaj7
	I look deep in the soul and
	   Em    G         A7
	To me it doesn’t belong
	D	       Dmaj7
	Left is just a hole and
	        Em  G     A7
	There’s something wrong
	D	Dmaj7
	So many days thinking 
	   Em   G      A7
	Of what I’ve become
	D	   Dmaj7
	In so many ways I
	       Em G      A7
	Really haven’t begun

INTRO TO CHORUS
[ Tab from: http://www.guitartabs.cc/tabs/j/judd_james/mirror_image_tab.html ]
E-0-2-3-3-3-3-
B----------------
G----------------
D----------------
A----------------
E----------------
Chorus:
	
	D          C      Eb  D 
	There is a mirror i   mage
	C      A#        C
	That reflects my face
	    D       C     Eb    D
	But it does not reflect me
	C    A#   C
        Even by a trace, yeah yeah
        G#              G          F#         G   Em
        I don’t know if I can keep up at this pace
	
	
E-0-2-3-3-3-3-
B----------------
G----------------
D----------------
A----------------
E----------------

	D	   C	  Eb  D
	There is a mirror i   mage
	C      A#       C
	That appears so real
    	    D       C     Eb    D
	But it does not reflect me
	   C    A#    C
	Or even how I feel, yeah yeah
        G#              G           F#          G   Em       
	I don’t know if I can break through the seal


E----2----2----2----2---
B------3----3----------3-
G-2---------------2------
D-------------------------
A-------------------------
E--------------------------

Rhythm Guitar through solo

C   Em  Am  Em x4

Then

E----2----2----2----2---
B------3----3----------3-
G-2---------------2------
D-------------------------
A-------------------------
E--------------------------

Verse 3 

	D	       Dmaj7
	I look into my heart and
	    Em      G   A7
	Something isn’t there
	D	  Dmaj7
	A missing part and
	  Em   G        A7
	Nobody seems to care
	D	Dmaj7
	So many lifetimes
                 Em G   A7
	Left for me to evolve
	D	         Dmaj7
	I’ve now lost my mind and
	    Em   G       A7
	The past will dissolve


E-0-2-3-3-3-3-
B----------------
G----------------
D----------------
A----------------
E----------------

Chorus:
	
	D          C      Eb  D 
	There is a mirror i   mage
	C      A#        C
	That reflects my face
	    D       C     Eb    D
	But it does not reflect me
	C    A#   C
        Even by a trace, yeah yeah
        G#              G          F#         G   Em
        I don’t know if I can keep up at this pace
	
	
E-0-2-3-3-3-3-
B----------------
G----------------
D----------------
A----------------
E----------------

	D	   C	  Eb  D
	There is a mirror i   mage
	C      A#       C
	That appears so real
    	    D       C     Eb    D
	But it does not reflect me
	   C    A#    C
	Or even how I feel, yeah yeah
        G#              G           F#          G   Em       
	I don’t know if I can break through the seal

Outro

   D  C  Eb   D
   C  A# C

E----------------------------------------
B----------------------------------------
G---10-10-10-10-108-8-8-8-86*----------
D----------------------------------------
A----------------------------------------
E----------------------------------------




Comments