Judd James - Let It Rain Chords & Tabs

 

Let It Rain Chords & Tabs

Judd James Chords & Tabs

Version: 1 Type: Tab 1 rating
1 star 2 stars 3 stars 4 stars 5 stars
comments

Let It Rain Tab

   
                                      "Let It Rain" (intro only)
                                        Written and Tabbed By 
                                              James Judd
Chords used:
            D  Am7  Cadd9 G  C  D/F#  Em  Bm7  C#m7  Dm7  Em7  F#m7  Dsus4  Dsus2
e-----------2--0----3-----3--0--0-----x---2----4-----5----7----9-----3------0
b-----------3--1----3-----3--1--3-----x---3----5-----6----8----10----3------3
g-----------2--0----0-----0--0--2-----0---2----4-----5----7----9-----2------2
d-----------0--2----2-----0--2--0-----2---4----6-----7----9----11----0------0     chords in 
a-----------x--x----3-----2--3--0-----2---2----4-----5----7----9-----x------x     whole song
E-----------x--x----x-----3--x--2-----0---x----x-----x----x----x-----x------x

Fig.1
[ Tab from: http://www.guitartabs.cc/tabs/j/judd_james/let_it_rain_tab.html ]
e-2-2-4--2-2-7-9--9\--2-2-4--2-2-7-9--9--12-9--9--10-9--9--10-9--12-9--9--10-9--9--10-9--
B-3-3-5--3-3-8-10-10\-3-3-5--3-3-8-10-10-10-10-10-10-10-10-10-10-10-10-10-10-10-10-10-10-
G-2-2-4--2-2-7-9--9\--2-2-4--2-2-7-9--9--9--9--9--9--9--9--9--9--9--9--9--9--9--9--9--9--
D----------------------------------------------------------------------------------------
A----------------------------------------------------------------------------------------
E----------------------------------------------------------------------------------------
                                                                                           x2
e-12-9--10-9--12-9--10-9--12-9--9--10-9--10-9--7-7-5-5-5-2-2-0h2-2h3p2p0-0h2-2-
B-10-10-10-10-10-10-10-10-10-10-10-10-10-10-10-8-8-6-6-6-3-3-3-3-3-3-3-3-2-3-3-
G-9--9--9--9--9--9--9--9--9--9--9--9--9--9--9--7-7-5-5-5-2-2-2-2-2-2-2-2-2-2-2-  
D------------------------------------------------------------------------------
A------------------------------------------------------------------------------
E------------------------------------------------------------------------------

Fig.2

  
e-3----3--------3-------------3----2--2-2---
B-3----3--------3-------------3----3-----3--
G-0----0--------0-------------0----2------2-
D-2----0--------2-------------0----0-------- x4
A-3----2----0h3-3---3-3p2p0---2----x--------
E-x----3---3----x----------h3-3----x--------

Comments