Judas Priest - Youve Got Another Thing Comin Chords & Tabs

 

Youve Got Another Thing Comin Chords & Tabs

Judas Priest Chords & Tabs

Version: 3 Type: Tab 0 ratings
1 star 2 stars 3 stars 4 stars 5 stars
comments

Youve Got Another Thing Comin Tab

   
Band:  Judas Priest
Album: Screaming For Vengeance
Song:  You've Got Another Thing Comin'

Copyright (c)  (CBS) (1982)
Version 1.0 - (10/02/05)

Transcribed By: Steve
Email:          stephen.elvidge1@ntlworld.com


.  - palm mute           /  - slide up to
\  - slide down to       ~  - vibrato
h  - hammer on           b  - Bend
p  - pull off            Suffixes for bend
t  - tap                 f  - full bend    h - half bend
ph - pinched harmonic    q  - quarter bend t - tap bend
*  - see comment         ^  - Hold bend    r release bend
x  - Stuccatto           ~  - vibrato bend
,  - slight palm mute    () - ghost note, sustained note
"  - tremolo note        <> - Trill

Tunning E A D G B E

Intro

 Guitar 1
  [---------------------------PM-------------------------]
E----------------------------------------------------------|
B----------------------------------------------------------|
G----------------------------------------------------------|
D----------------------------------------------------------|
A-4-4-4-4-4-4-4-4-4-4-4-4-4-4-4-4-4-4-4-4-4-4-4-4-4-4-4-4--|
E-2-2-2-2-2-2-2-2-2-2-2-2-2-2-2-2-2-2-2-2-2-2-2-2-2-2-2-2--|

 Guitar 2
E[----------------------------------------------------------|
B[-5----(5)-------------------------------------------------|
G[-4----(4)-----4----(4)------------------2--2-----2--4-----|
D[-2----(2)-----4----(4)------4-----(4)---2--2-----2--4-----|
A[--------------2----(2)------4-----(4)---------4-----------|
E[----------------------------2-----(2)---------------------|
 [
 [Guitar 2
E[----------------------------------------------------------|
B[-5----(5)-------------------------------------------------|
G[-4----(4)-----4----(4)------------------------------4-----|
D[-2----(2)-----4----(4)------4-----(4)---------------4-----|
A[--------------2----(2)------4-----(4)---------------------|
E[----------------------------2-----(2)---5--2--2--5--------|

Verse

 Guitar 1
                                [--------PM--------]
E[----------------------------------------------------------|
B[----------------------------------------------------------|
G[----------------------------------------------------------|
D[----------------------------------------------------------|
A[-4---------(4)-----------------2-4-2-4----2-2-4----4------|
E[-2---------(2)-----------------2-2-2-2----2-2-2--2-0-2----|
 [
 [Guitar 2
 [ [---------------------------PM-------------------------]
E[----------------------------------------------------------|
B[----------------------------------------------------------|
G[----------------------------------------------------------|
D[----------------------------------------------------------|
A[-4-4-4-4-4-4-4-4-4-4-4-4-4-4-4-4-4-4-4-4-4-4-4-4-4-4-4-4--|
E[-2-2-2-2-2-2-2-2-2-2-2-2-2-2-2-2-2-2-2-2-2-2-2-2-2-2-2-2--|


Chorus

E-----------------------------------------------|
B-----------------------------------------------|
G-----------------------------------------------|
D------------7----------4-----------------------|
A-4----------5----------2----------4------------|
E-2--------------------------------2------------|
[ Tab from: http://www.guitartabs.cc/tabs/j/judas_priest/youve_got_another_thing_comin_tab_ver_3.html ]
E-----------------------------------------------|
B-----------------------------------------------|
G-----------------------------------------------|
D------------7----------4----------6------------|
A-4----------5----------2----------4------------|
E-2---------------------------------------------|


 Post chorus riff

     [PM]   [--PM--]   [PM] 
E--------------------------------|
B--------------------------------|
G-2------2----------2-2---2--4---|
D-2--4-4-2--4-4-4-4-2-2-4-2--4---|
A----4-4----4-4-4-4-----4--------|
E--------------------------------|

    [PM]   [--PM--]  
E--------------------------------|
B--------------------------------|
G-2------2----------------2--4---|
D-2--4-4-2--4-4-4-4-------2--4---|
A----4-4----4-4-4-4-------0------|
E-------------------5-2-2--------|

Rpt verse and chorus

     [PM]   [--PM--]   [PM]         [PM]   [--PM--]  
E----------------------------------------------------------------|
B----------------------------------------------------------------|
G-2------2----------2-2---2--4----2------2----------2-2---2--4---|
D-2--4-4-2--4-4-4-4-2-2-4-2--4----2------2----------2-2---2--4---|
A----4-4----4-4-4-4-----4------------4-4----4-4-4-4--------------|
E-------------------------------------------------------2--------|
Rpt 2 X
        


 Clean guitar
These chord roots are implied by the bass
   B      D      A      F#     B      D      A      C#
 Guitar 1                                                   distortion on
E-------------------------------------------------------------------|
B--7------7------2-------------7------7------2----------------------|
G--7------7------2-------------7------7------2------6---------------|
D--9------9------2-------------9------9------2------6---------------|
A----------------0------4--------------------0------4---------------|
E-----------------------2-------------------------------------------|

 Guitar 2                             t~~~~~~~~~~~~~~
E-------------------------------------------------------------------|
B-------------------------------------------------------------------|
G-----------------------4b---2---4b---18----\14---------------------|
D------------------------------4------------------------------------|
A-------------------------------------------------------------------|
E-------------------------------------------------------------------|

Backing for guitar solo 
     [PM]   [--PM--]   [PM] 
E--------------------------------|
B--------------------------------|
G-2------2----------2-2---2--4---|
D-2--4-4-2--4-4-4-4-2-2-4-2--4---|
A----4-4----4-4-4-4-----4--------|
E--------------------------------|Rpt 4 X

Rpt chorus riff

Rpt verse
Rpt chorus

Rpt post chorus riff 2 X
Rpt post chorus riff 2 X guitars only

 Outro

 Guitar 1

     [PM]   [--PM--]   [PM]          [PM]   [--PM--]    
E[----------------------------------------------------------------|
B[----------------------------------------------------------------|
G[-2------2----------2-2---2--4----2------2----------2-2---2--4---|
D[-2--4-4-2--4-4-4-4-2-2-4-2--4----2--4-4-2--4-4-4-4-2-2-4-2--4---|
A[----4-4----4-4-4-4-----4------------4-4----4-4-4-4-----4--------|
E[----------------------------------------------------------------|
 [
 [
 [Guitar 2
E[----------------------------------------------------------------|
B[-5----(5)-------------------------------------------------------|
G[-4----(4)---------4----(4)--------------------------------------|
D[-2----(2)---------4----(4)-------4-----(4)----------------------|
A[------------------2----(2)-------4-----(4)----------------------|
E[---------------------------------2-----(2)----------------------|

Rpt to fade



END
Comments