Judas Priest - You Say Yes Chords & Tabs

 

You Say Yes Chords & Tabs

Judas Priest Chords & Tabs

Version: 2 Type: Tab 0 ratings
1 star 2 stars 3 stars 4 stars 5 stars
comments

You Say Yes Tab

   
Band:  Judas Priest
Album: Point Of Entry
Song:  You Say Yes

Copyright (c)  (CBS) (1981)
Version 1.0 - (24/02/05)

Transcribed By: Steve
Email:          stephen.elvidge1@ntlworld.com


.  - palm mute           /  - slide up to
\  - slide down to       ~  - vibrato
h  - hammer on           b  - Bend
p  - pull off            Suffixes for bend
t  - tap                 f  - full bend    h - half bend
ph - pinched harmonic    q  - quarter bend t - tap bend
*  - see comment         ^  - Hold bend    r release bend
x  - Stuccatto           ~  - vibrato bend
,  - slight palm mute    () - ghost note, sustained note
"  - tremolo note        <> - Trill

Tunning E A D G B E


 Intro / Main Riff

    h h   h h  [---PM-----]
E-------------------------------|
B-------------------------------|
G-----------3-------------------|
D-5---3-4-5---5-5--5--5--5--5---|
A-3-6-----------3--0--3--0--3---|
E-------------------------------|
 Rpt 2 X on own as intro
 Rpt 4 X with bass and drums
 Rpt 8 X for verse


 Additional guitars in verse
      ~~~  ~~~ 
E------------------|
B------------------|
G-10p-8---10-10\---|
D-10p-8---10-10\---|
A------------------|
E------------------|
 
 Chorus

 Guitar 1
E[-----------------------------------|
B[-----------------------------------|
G[-----------------------------------|
D[-----------5---\-------------------|
A[-2----3----3---\2----3---0-5-5-5---|
E[-0----1---------0----1-----3-3-3---|
 [Guitar 2
E[-----------------------------------|
B[-----------------------------------|
G[---------------------------0-0-0---|
D[-----------5---\-----------0-0-0---|
A[-2----3----3---\2----3---0---------|
E[-0----1---------0----1-------------|

 Rpt verse

 Additional guitar appears half way through 2nd verse
     Fade in
E----------------------------|
B----------------------------|
G-8----------5-----(5)-------|
D-8----------5-----(5)-------|
A------------3-----(3)-------|
E----------------------------|

 Rpt Chorus

 Interlude

E-----------------------------------|
B-----------------------------------|
G-----------------------------------|
D-5--------------(5)----------------|
A-3--------------(3)----------------|
E-----------------------------------|

 Clean guitars with slight overdrive.
[ Tab from: http://www.guitartabs.cc/tabs/j/judas_priest/you_say_yes_tab_ver_2.html ]
 Guitar 1
  C             A#                        
E[------------------------------|
B[------------------------------|
G[-5---------3-0-3----------3/--|
D[-5---------3-0-3----------3/--|
A[------------------------------|
E[------------------------------|
 [Guitar 2
E[------------------------------|
B[------------------------------|
G[-5---------------3---5--------|
D[-5-----------------5----------|
A[------------------------------|
E[------------------------------|Rpt 9 X

 This enters 6th time
E-------------------------------|
B-------------------------------|
G---8\7\5\3/5---3---------------|
D---8\7\5\3/5---3---------------|
A-------------------------------|
E-------------------------------|

 With distortion 
                       ~                     ~~
E------------------------------------------------|
B---------------------4----------------------4---|
G---------------------3----------------------3---|
D-5--5--5--5--5--5--5----3--3--3--3--3--3--3-----|
A-3--0--3--0--3--0--3----1--0--1--0--1--0--1-----|
E------------------------------------------------|Rpt 7 X

 Enters 2nd time
E----------3-----6----------6-----6-----6--------|
B----4-----4-----8----------6-----6-----6--------|
G----3----------------------7-----7-----7--------|
D------------------------------------------------|
A------------------------------------------------|
E------------------------------------------------|Rpt 4 X

 Enters 6th time
    h   h h ~~~~~~~~~~       h h   h~~~~~~~~~~~~
E------------------------------------------------|
B------------------------------------------------|
G-----------3--------------------3---------------|
D-----3-4-5----------------3-4-5---5-------------|
A-3-6--------------------6-----------------------|
E------------------------------------------------|Rpt 2 X

 Rpt Main Riff 4 X

 Chorus
 Guitar 1
E[-----------------------------------|
B[-----------------------------------|
G[-----------------------------------|
D[------------5---\------------------|
A[-2-2-x-3-x--3---\2-2-x-3--0-5-5-5--|
E[-0-0-x-1-x-------0-0-x-1----3-3-3--|
 [Guitar 2
E[-----------------------------------|
B[-----------------------------------|
G[----------------------------0-0-0--|
D[---------x--5---\-----------0-0-0--|
A[-2-2-x-3-x--3---\2-2-x-3--0--------|
E[-0-0-x-1---------0-0-x-1-----------|Rpt to fade



END
Comments