Judas Priest - You Got Another Thing Comin Chords & Tabs

 

You Got Another Thing Comin Chords & Tabs

Judas Priest Chords & Tabs

Version: 1 Type: Bass Tab

You Got Another Thing Comin Bass Tab

   
Judas Priest
You Got Another Thing Commin'
"Screaming For Vengeance" (1982)

Standard Tuning (E,A,D,G)
This song is pretty simple and repetitive, the only part I'm not sure of is the bridge.

Intro & Verse
Repeat this until the chorus. Listen to the song to get the rhythem.
G------------------------|
D------------------------|
A------------------------|
E-22222222222222222222222


Pre-Chorus (If you think I'll sit around...)
G---------------------------------------------------------|
D-4-4-4-4-4-4-4-0-0-0-0-0-0-0-----------------------------|
A-----------------------------2-2-2-2-2-2-2---------------|
E-------------------------------------------2-2-2-2-2-2-2-|
(Out there is a fortune...)
G---------------------------------------------------------|
D-4-4-4-4-4-4-4-0-0-0-0-0-0-0-----------------------------|
A-----------------------------2-2-2-2-2-2-2-4-4-4-4-4-4-4-|
E---------------------------------------------------------|

Chorus (You got another thing comin')
G------------------------|
D------------------------|
A------------------------|
E-22222222222222222222222
[ Tab from: http://www.guitartabs.cc/tabs/j/judas_priest/you_got_another_thing_comin_btab.html ]
Bridge (In this world we're livin' in...)
I'm not really sure about this part, but I think this sounds decent.
G------------------------------------------|
D-7---------4------------------------------|
A-----------------------2------------------|
E-----------------------------------222222-|

G-----------------------------------6-|
D-7---------4-------------------------|
A-----------------------2-------------|
E-------------------------------------|

Solo
repeat until 2:33
G------------------------|
D------------------------|
A------------------------|
E-22222222222222222222222

2:33
G---------------------------------------------------------|
D-4-4-4-4-4-4-4-0-0-0-0-0-0-0-----------------------------|
A-----------------------------2-2-2-2-2-2-2---------------|
E-------------------------------------------2-2-2-2-2-2-2-|

G---------------------------------------------------------|
D-4-4-4-4-4-4-4-0-0-0-0-0-0-0-----------------------------|
A-----------------------------2-2-2-2-2-2-2-4-4-4-4-4-4-4-|
E---------------------------------------------------------|

Outro
3:42      End with
G--------|------------------------------------------------|
D--------|------------------------------------------------|
A-0---0-2|------------------------------------------------|
E---2----|-2222222222222222222222222222-------------------|

Thats pretty much it. Just listen to the song for timing.
email me at ksneddon@uno.com