Judas Priest - United Chords & Tabs

 

United Chords & Tabs

Judas Priest Chords & Tabs

Version: 2 Type: Tab 0 ratings
1 star 2 stars 3 stars 4 stars 5 stars
comments

United Tab

   
Band:  Judas Priest
Album: British Steel
Song:  United

Copyright (c)  (CBS) (1980)
Version 1.0 - (11/02/05)

Transcribed By: Steve
Email:          stephen.elvidge1@ntlworld.com


.  - palm mute           /  - slide up to
\  - slide down to       ~  - vibrato
h  - hammer on           b  - Bend
p  - pull off            Suffixes for bend
t  - tap                 f  - full bend    h - half bend
ph - pinched harmonic    q  - quarter bend t - tap bend
*  - see comment         ^  - Hold bend    r release bend
x  - Stuccatto           ~  - vibrato bend
,  - slight palm mute    () - ghost note, sustained note
"  - tremolo note        <> - Trill

Tunning E A D G B E

 Intro

 Guitar 1
        [-PM-]                        [-PM-]
E[-----------------------------------------------------------|
B[-----------------------------------------------------------|
G[-----------------------------------------------------------|
D[--------------------------------2--------------------------|
A[--2--4------4-------------------0--4------4----------------|
E[--0--2--0-0-2----------------------2--0-0-2----------------|
 [
 [Guitar 2 (as if delayed)
 [                     [-PM-]                        [-PM-]
E[-----------------------------------------------------------|
B[-----------------------------------------------------------|
G[-----------------------------------------------------------|
D[---------------------------------------------2-------------|
A[---------------2--4------4-------------------0--4------4---|
E[---------------0--2--0-0-2----------------------2--0-0-2---|
 Rpt 2 X
[ Tab from: http://www.guitartabs.cc/tabs/j/judas_priest/united_tab_ver_2.html ]
 Verse riff A
        [-------PM-----]      [-----PM-------]
E------------------------------------------------|
B------------------------------------------------|
G------------------------------------------------|
D------------------------2-----------------------|
A--2--4--4--4--4---------0--4--4--4--4-----------|
E--0--2--2--2--2--2-0-2-----2--2--2--2--2-0-2----|
 Rpt 2 X before vocals enter.
 Rpt 2 X with vocals.

 Verse riff B
       [-------PM-----]      [-----PM-------]
E------------------------------------------------|
B------------------------------------------------|
G------------------------------------------------|
D--2--4--4--4--4---------7--4--4--2-2-2----------|
A--0--2--2--2--2--2-0-2--5--2--2--0-0-0-2-2-2----|
E---------------------------------------0-0-0----|

 Rpt verse riff A once

 Bridge

E-----------------------------|
B-----------------------------|
G-----------4-----------------|
D--2---(2)--4--------6--------|
A--0---(0)-------2/--4--------|
E-----------------------------|

 Chorus
E----------------------------------------|
B----------------------------------------|
G----------------------------------------|
D-----------6--(6)---4--(4)---6---(6)----|
A--4--(4)---4--(4)---2--(2)---4---(4)----|
E--2--(2)--------------------------------|

E----------------------------------------|
B----------------------------------------|
G----------------------------------------|
D-----------6--(6)---4--(4)---4-/6-------|
A--4--(4)---4--(4)---2--(2)---2-/4-------|
E--2--(2)--------------------------------|

Rpt chorus

Rpt verse, bridge.
Rpt chorus 2 X

Breakdown.

Rpt chorus to fade.





END
Comments