Judas Priest - Turbo Lover Chords & Tabs

 

Turbo Lover Chords & Tabs

Judas Priest Chords & Tabs

Version: 3 Type: Bass Tab 0 ratings
1 star 2 stars 3 stars 4 stars 5 stars
comments

Turbo Lover Bass Tab

   
Standard Tuning
Ian Hill used a Hamer 4-string bass to record this track.

* = Accented Note
~ = Let Ring

This is my first tab, but I think it's at least 90%+ right.

Verse (Enters at 0:13)
G|--------------------------------------|
D|--------------------------------------|
A|7-7-7-7-7-7-7-7-7-7-7-7-7-7-7-7-7-7-7-|
E|--------------------------------------|
Until: 2:04
[ Tab from: http://www.guitartabs.cc/tabs/j/judas_priest/turbo_lover_btab_ver_3.html ]
Chorus - 2x
G|--------------------------------------------------|
D|--------------------------------5-----------------|
A|5-5-5-5-7-7-7-7-5-5-5-5-7-7-7-7---7-7-7-7-7-7-7-7-|
E|--------------------------------------------------|

G|------------|
D|------------|
A|--3*-----1*-|
E|------------|

G|--------------------------------------------------|
D|--------------------------------5-----------------|
A|5-5-5-5-7-7-7-7-5-5-5-5-7-7-7-7---7-7-7-7-7-7-7-7-|
E|--------------------------------------------------|

G|----------------|
D|----------------|
A|7-7-7-7-7-7-7-7-|
E|----------------|

Verse until 2:58, then Chorus again.

Bridge (at 3:23 or 3:24)

G|--------------------|
D|--------------------|
A|--5~~-3~~-----------|
E|------------7~~-5~~-|
Until: 3:49

Then Verse until 4:39, and Chorus until the song fades.
Comments