Judas Priest - The Ripper Chords & Tabs

 

The Ripper Chords & Tabs

Judas Priest Chords & Tabs

Version: 1 Type: Tab 0 ratings
1 star 2 stars 3 stars 4 stars 5 stars
comments

The Ripper Tab

                                  The Ripper                                    


                                                          Halford/Tipton/Downing
Gtr 1



                                                         
E||------------------15----------18--|------------------|
B||------15--16----------16----------|------------------|
G||--17----------17----------17------|------------------|
D||----------------------------------|------------------|
A||----------------------------------|------------------|
E||----------------------------------|------------------|


                                                      
--------------------------|--------------------------|
--------------------------|--------------------------|
--------------------------|--------------------------|
--------------------------|--------------------------|
--7--7--7--7--7--7--7--7--|--7--7--7--7--7--7--7--7--|
--5--5--5--5--5--5--5--5--|--5--5--5--5--5--5--5--5--|


                                                      
--------------------------|--------------------------|
--------------------------|--------------------------|
--------------------------|--------------------------|
--------------------------|--------------------------|
--7--7--7--7--7--7--7--7--|--7--7--7--7--7--7--7--7--|
--5--5--5--5--5--5--5--5--|--5--5--5--5--5--5--5--5--|


                                                      
--------------------------|--------------------------|
--------------------------|--------------------------|
--------------------------|--------------------------|
--------------------------|--------------------------|
--7--7--7--7--7--7--7--7--|--7--7--7--7--7--7--7--7--|
--5--5--5--5--5--5--5--5--|--5--5--5--5--5--5--5--5--|


                                                      
--------------------------|--------------------------|
--------------------------|--------------------------|
--------------------------|--------------------------|
--------------------------|--------------------------|
--7--7--7--7--7--7--7--7--|--7--7--7--7--7--7--7--7--|
--5--5--5--5--5--5--5--5--|--5--5--5--5--5--5--5--5--|


                                                      
--------------------------|--------------------------|
--------------------------|--------------------------|
--------------------------|--------------------------|
--5--5--5--5--5--5--------|--------------------------|
--3--3--3--3--3--3--5--5--|--5--5--5--5--5--5--5--5--|
--------------------3--3--|--3--3--3--3--3--3--3--3--|


                                                                     
--------------------------|--------------|--------------------------|
--------------------------|--------------|--------------------------|
--------------------------|--------------|--------------------------|
--------------------------|--------------|--7--------7--------7-----|
--3--3--3--3--3--3--2--2--|--2--2--2--2--|--7--------7--------7-----|
--1--1--1--1--1--1--0--0--|--0--0--0--0--|--5--5--5--5--5--5--5--5--|


                                                      
--------------------------|--------------------------|
--------------------------|--------------------------|
--------------------------|--------------------------|
-----7--------7/-5--5/-7--|--7--------7--------7-----|
-----7--------7/-5--5/-7--|--7--------7--------7-----|
--5--5--5--5--5/-3--3/-5--|--5--5--5--5--5--5--5--5--|


                                                      
--------------------------|--------------------------|
--------------------------|--------------------------|
--------------------------|--------------------------|
-----7--------7/-5--5/-7--|--7--------7--------7-----|
-----7--------7/-5--5/-7--|--7--------7--------7-----|
--5--5--5--5--5/-3--3/-5--|--5--5--5--5--5--5--5--5--|


                                                      
--------------------------|--------------------------|
--------------------------|--------------------------|
--------------------------|--------------------------|
-----7--------7/-5--5/-7--|--7--------7--------7-----|
-----7--------7/-5--5/-7--|--7--------7--------7-----|
--5--5--5--5--5/-3--3/-5--|--5--5--5--5--5--5--5--5--|


                                                      
--------------------------|--------------------------|
--------------------------|--------------------------|
--------------------------|--------------------------|
-----7--------7/-5--5/-7--|--7--------7--------7-----|
-----7--------7/-5--5/-7--|--7--------7--------7-----|
--5--5--5--5--5/-3--3/-5--|--5--5--5--5--5--5--5--5--|


                                                                   
--------------------------|--------------------|------------------|
--------------------------|--------------------|------------------|
--------------------------|--5-----------------|------------------|
-----7--------7/-5--5/-7--|--5------------5----|------------------|
-----7--------7/-5--5/-7--|--3------------5----|------------------|
--5--5--5--5--5/-3--3/-5--|---------------3----|------------------|


                                                            
--------------------|----------|---------------------------|
--------------------|----------|---------------------------|
--------------------|----------|---------------------7--9--|
--3------------2----|----------|--7--9--10--9----10--------|
--3------------2----|----------|---------------------------|
--1------------0----|----------|---------------------------|


                                                       
---------------------------|--------------------------|
----8--7-------------------|--------------------------|
----------7--10--9------8--|--------------------------|
--------------------10-----|--7--------7--------7-----|
---------------------------|--7--------7--------7-----|
---------------------------|--5--5--5--5--5--5--5--5--|


                                                      
--------------------------|--------------------------|
--------------------------|--------------------------|
--------------------------|--------------------------|
-----7--------7/-5--5/-7--|--7--------7--------7-----|
-----7--------7/-5--5/-7--|--7--------7--------7-----|
--5--5--5--5--5/-3--3/-5--|--5--5--5--5--5--5--5--5--|


                                                      
--------------------------|--------------------------|
--------------------------|--------------------------|
--------------------------|--------------------------|
-----7--------7/-5--5/-7--|--7--------7--------7-----|
-----7--------7/-5--5/-7--|--7--------7--------7-----|
--5--5--5--5--5/-3--3/-5--|--5--5--5--5--5--5--5--5--|


                                                      
--------------------------|--------------------------|
--------------------------|--------------------------|
--------------------------|--------------------------|
-----7--------7/-5--5/-7--|--7--------7--------7-----|
-----7--------7/-5--5/-7--|--7--------7--------7-----|
--5--5--5--5--5/-3--3/-5--|--5--5--5--5--5--5--5--5--|


                                                                   
--------------------------|--------------------|------------------|
--------------------------|--------------------|------------------|
--------------------------|--5-----------------|------------------|
-----7--------7/-5--5/-7--|--5------------5----|------------------|
-----7--------7/-5--5/-7--|--3------------5----|------------------|
--5--5--5--5--5/-3--3/-5--|---------------3----|------------------|


                                                            
--------------------|----------|---------------------------|
--------------------|----------|---------------------------|
--------------------|----------|---------------------7--9--|
--3------------2----|----------|--7--9--10--9----10--------|
--3------------2----|----------|---------------------------|
--1------------0----|----------|---------------------------|


                                                        
---------------------------|---------------------------|
----8--7-------------------|---------------------------|
----------7--10--9------8--|---------------------7--9--|
--------------------10-----|--7--9--10--9----10--------|
---------------------------|---------------------------|
---------------------------|---------------------------|


                                                        
---------------------------|---------------------------|
----8--7-------------------|---------------------------|
----------7--10--9------8--|---------------------7--9--|
--------------------10-----|--7--9--10--9----10--------|
---------------------------|---------------------------|
---------------------------|---------------------------|


                                                                         
---------------------------|---------------|----------------------------|
----8--7-------------------|---------------|--15r---13--12h---13--------|
----------7--10--9------8--|--7------------|----------------------------|
--------------------10-----|-----7--10--9--|----------------------14----|
---------------------------|---------------|----------------------------|
---------------------------|---------------|----------------------------|


                                                              
--------------------------------|----------------------------|
----13h-12----------12--13--15--|--15r---13--12h---13--------|
------------12--14--------------|----------------------------|
--------------------------------|----------------------14----|
--------------------------------|----------------------------|
--------------------------------|----------------------------|


                                                              
--------------------------------|----------------------------|
----13h-12------13h-12----------|--12r---10--12--------10----|
------------12----------12--14--|------------------12--------|
--------------------------------|----------------------------|
--------------------------------|----------------------------|
--------------------------------|----------------------------|

[ Tab from: http://www.guitartabs.cc/tabs/j/judas_priest/the_ripper_tab.html ]
                                                                
--------------------------------|------------------------------|
----13--12------13--12------10--|--12r---10--12----------------|
------------12----------12------|------------------12--12--10--|
--------------------------------|------------------------------|
--------------------------------|------------------------------|
--------------------------------|------------------------------|


                                                    
--------------------------------|------------------|
--------13----------12----------|------------------|
------------12----------12--14--|------------------|
--14------------12--------------|------------------|
--------------------------------|------------------|
--------------------------------|------------------|


                                                         
-----------------------------|--------------------------|
-----------------------------|--------------------------|
-----------------------------|--------------------------|
-------------------7---------|-------------------7------|
--7--9--10--9--10-----10--9--|--7--9--10--9--10---------|
-----------------------------|--------------------------|


                                                         
-----------------------------|--------------------------|
-----------------------------|--------------------------|
-----------------------------|--------------------------|
-------------------7---------|-------------------7------|
--7--9--10--9--10-----10--9--|--7--9--10--9--10---------|
-----------------------------|--------------------------|


                                                              
--------------------------------|----------------------------|
--------------------------------|----------------------------|
--------------------------------|----------------------------|
---------------------8----------|---------------------8------|
--8--10--11--10--11-----11--10--|--8--10--11--10--11---------|
--------------------------------|----------------------------|


                                                              
--------------------------------|----------------------------|
--------------------------------|----------------------------|
--------------------------------|----------------------------|
---------------------9----------|---------------------9------|
--9--11--12--11--12-----12--11--|--9--11--12--11--12---------|
--------------------------------|----------------------------|


                                                                      
----------------------------------|----------------------------------|
----------------------------------|----------------------------------|
----------------------------------|----------------------------------|
----------------------10----------|----------------------11----------|
--10--12--13--12--13------13--12--|--11--13--14--13--14------14--13--|
----------------------------------|----------------------------------|


                                                                  
----------------------------------|------------------------------|
----------------------------------|------------------------------|
----------------------------------|------------------------------|
----------------------------------|----------------------14------|
--12--14--15--14--13--15--16--15--|--14--16--17--16--17----------|
----------------------------------|------------------------------|


                                                         
-----------------------------|--------------------------|
-----------------------------|--------------------------|
-----------------------------|--------------------------|
-------------------7---------|-------------------7------|
--7--9--10--9--10-----10--9--|--7--9--10--9--10--5------|
-----------------------------|--------------------------|


                                                         
-----------------------------|--------------------------|
-----------------------------|--------------------------|
-----------------------------|--------------------------|
-------------------7---------|-------------------7------|
--7--9--10--9--10-----10--9--|--7--9--10--9--10--5------|
-----------------------------|--------------------------|


                                                         
-----------------------------|--------------------------|
-----------------------------|--------------------------|
-----------------------------|--------------------------|
-------------------7---------|-------------------7------|
--7--9--10--9--10-----10--9--|--7--9--10--9--10--5------|
-----------------------------|--------------------------|


                                                         
-----------------------------|--------------------------|
-----------------------------|--------------------------|
-----------------------------|--------------------------|
-------------------7---------|-------------------7------|
--7--9--10--9--10-----10--9--|--7--9--10--9--10--5------|
-----------------------------|--------------------------|


                                                      
--------------------------|--------------------------|
--------------------------|--------------------------|
--------------------------|--------------------------|
--7--------7--------7-----|-----7--------7/-5--5/-7--|
--7--------7--------7-----|-----7--------7/-5--5/-7--|
--5--5--5--5--5--5--5--5--|--5--5--5--5--5/-3--3/-5--|


                                                      
--------------------------|--------------------------|
--------------------------|--------------------------|
--------------------------|--------------------------|
--7--------7--------7-----|-----7--------7/-5--5/-7--|
--7--------7--------7-----|-----7--------7/-5--5/-7--|
--5--5--5--5--5--5--5--5--|--5--5--5--5--5/-3--3/-5--|


                                                      
--------------------------|--------------------------|
--------------------------|--------------------------|
--------------------------|--------------------------|
--7--------7--------7-----|-----7--------7/-5--5/-7--|
--7--------7--------7-----|-----7--------7/-5--5/-7--|
--5--5--5--5--5--5--5--5--|--5--5--5--5--5/-3--3/-5--|


                                                      
--------------------------|--------------------------|
--------------------------|--------------------------|
--------------------------|--------------------------|
--7--------7--------7-----|-----7--------7/-5--5/-7--|
--7--------7--------7-----|-----7--------7/-5--5/-7--|
--5--5--5--5--5--5--5--5--|--5--5--5--5--5/-3--3/-5--|


                                                      
--------------------------|--------------------------|
--------------------------|--------------------------|
--------------------------|--------------------------|
--7--------7--------7-----|-----7--------7/-5--5/-7--|
--7--------7--------7-----|-----7--------7/-5--5/-7--|
--5--5--5--5--5--5--5--5--|--5--5--5--5--5/-3--3/-5--|


                                                      
--------------------------|--------------------------|
--------------------------|--------------------------|
--------------------------|--------------------------|
--7--------7--------7-----|-----7--------7/-5--5/-7--|
--7--------7--------7-----|-----7--------7/-5--5/-7--|
--5--5--5--5--5--5--5--5--|--5--5--5--5--5/-3--3/-5--|


                                                      
--------------------------|--------------------------|
--------------------------|--------------------------|
--------------------------|--------------------------|
--7--------7--------7-----|-----7--------7/-5--5/-7--|
--7--------7--------7-----|-----7--------7/-5--5/-7--|
--5--5--5--5--5--5--5--5--|--5--5--5--5--5/-3--3/-5--|


                                                                           
--------------------------|--------------------------|--------------------|
--------------------------|--------------------------|--------------------|
--------------------------|--------------------------|--5-----------------|
--7--------7--------7-----|-----7--------7/-5--5/-7--|--5------------5----|
--7--------7--------7-----|-----7--------7/-5--5/-7--|--3------------5----|
--5--5--5--5--5--5--5--5--|--5--5--5--5--5/-3--3/-5--|---------------3----|


                                                                               
------------------|--------------------|----------|---------------------------|
------------------|--------------------|----------|---------------------------|
------------------|--------------------|----------|---------------------7--9--|
------------------|--3------------2----|----------|--7--9--10--9----10--------|
------------------|--3------------2----|----------|---------------------------|
------------------|--1------------0----|----------|---------------------------|


                                                        
---------------------------|---------------------------|
----8--7-------------------|---------------------------|
----------7--10--9------8--|---------------------7--9--|
--------------------10-----|--7--9--10--9----10--------|
---------------------------|---------------------------|
---------------------------|---------------------------|


                                                        
---------------------------|---------------------------|
----8--7-------------------|---------------------------|
----------7--10--9------8--|---------------------7--9--|
--------------------10-----|--7--9--10--9----10--------|
---------------------------|---------------------------|
---------------------------|---------------------------|


                                                                              
---------------------------|-----------------------------|-------------------|
----8--7-------------------|-----------------------------|-------------------|
----------7--10--9------8--|--7--------------------------|--9----------------|
--------------------10-----|-----7--10--9-----10--9--10--|--9----------------|
---------------------------|---------------7-------------|--7----------------|
---------------------------|-----------------------------|-------------------|


                                             
------------------|------------------------||
------------------|------------------------||
------------------|------------------------||
------------------|----10--9--10--7--------||
------------------|---------------7--------||
------------------|---------------5--------||
Comments