Judas Priest - The Ripper Chords & Tabs

 

The Ripper Chords & Tabs

Judas Priest Chords & Tabs

Version: 1 Type: Bass Tab 0 ratings
1 star 2 stars 3 stars 4 stars 5 stars
comments

The Ripper Bass Tab

Main Riff (Comes in at 0:23)
G|--2------2------2----|----2------2--0--0--0--| x5
D|---------------------|-----------------------|
A|---------------------|-----------------------|
E|---------------------|-----------------------|

Pre Chorus
G|--------------------|------------------|--------------------|
D|--------------------|------------------|--------------------|
A|--3-----------------|------------------|--------------------|
E|---------------3----|------------------|--1------------0----|
"All hear my warning...."

Chorus
G|---------------|------------------0--|
D|---------------|------------0--2-----|
A|--0-0-0--0-0-0-|--0-0-0--3-----------|
E|---------------|---------------------|

Main Riff x 4
Pre Chorus
Chorus x 3

Solo
G|--2--4--5--7--|---------------------------|---------------------------|
D|--------------|--------------------0-0-0--|--2-22--2-22--2-22--0-0-0--|
A|--------------|--7-77--7-77--7-77---------|---------------------------|
E|--------------|---------------------------|---------------------------|
[ Tab from: http://www.guitartabs.cc/tabs/j/judas_priest/the_ripper_btab.html ]
G|--2-22--2-22--2-22--0-0-0--|--2-22--2-22--2-22-|
D|---------------------------|-------------------|
A|---------------------------|-------------------|
E|---------------------------|-------------------|

G|--5--------0--------|--2----------------|-------------------|
D|--------------------|-----------2-------|-------------------|
A|--------------------|-------------------|-------------------|
E|--------------------|-------------------|--0----------------|

Rest 11 Measures (untill 1:51)

Bridge
G|--------------------------|--------------------| x2
D|--2--2--2--2--2--2--2--2--|--2--2--2--2--2--0--|
A|--------------------------|--------------------|
E|--------------------------|--------------------|

Main Riff x 8
Pre Chorus
Chorus x 3

Outro
G|--2--4--5--7--9-------------|-------------------|
D|-----------------10--9--10--|-------------------|
A|----------------------------|--7----------------|
E|----------------------------|-------------------|

G|------------------|----------------------||
D|------------------|----------------------||
A|------------------|----3--2--3--0--------||
E|------------------|----------------------||
Comments