Judas Priest - Steeler Chords & Tabs

 

Steeler Chords & Tabs

Judas Priest Chords & Tabs

Version: 1 Type: Tab 0 ratings
1 star 2 stars 3 stars 4 stars 5 stars
comments

Steeler Tab

STEELER  British Steel  Transcribed by Ashley Dalby

E---||---------------------------|-----------------|--------------------
B---||---------------------------|-----------------|--------------------
G---||*--------9--------9--------|--9--------7--9--|--------9-----------
D---||*--------9--------9--------|--9--------7--9--|--------9-----------
A---||---------7--------7--------|--7--------5--7--|--------7-----------
E---||---0--0-----0--0-----0--0--|-----0--0--------|--0--0-----0--0-----
[ Tab from: http://www.guitartabs.cc/tabs/j/judas_priest/steeler_tab.html ]
E------------|------------------||--||---------------------------|------
B------------|------------------||--||---------------------------|------
G---9--------|--9--------7--7--*||--||*--------9--------9--------|------
D---9--------|--9--------7--7--*||--||*--------9--------9--------|------
A---7--------|--7--------5--5---||--||---------7--------7--------|------
E------0--0--|-----0--0---------||--||---0--0-----0--0-----0--0--|------ 

E------------------|--------------------------|------------------||-----
B------------------|--------------------------|------------------||-----
G---9--------7--9--|--------9--------9--------|--9--------7--7--*||-----
D---9--------7--9--|--------9--------9--------|--9--------7--7--*||-----
A---7--------5--7--|--------7--------7--------|--7--------5--5---||-----
E------0--0--------|--0--0-----0--0-----0--0--|-----0--0---------||-----

E---||---------|--------|--------|----------||--||-------------||-------
B---||---------|--------|--------|----------||--||-------------||-------
G---||*--------|--------|--------|---------*||--||*-----------*||-------
D---||*--10-7--|--10-7--|--10-7--|--10-12--*||--||*-----------*||-------
A---||---10-7--|--10-7--|--10-7--|--10-12---||--||-------------||-------
E---||---8-\5--|--8-\5--|--8-\5--|--8-/10---||--||-------------||-------
Comments