Judas Priest - Some Heads Are Gonna Roll Chords & Tabs

 

Some Heads Are Gonna Roll Chords & Tabs

Judas Priest Chords & Tabs

Version: 1 Type: Tab 0 ratings
1 star 2 stars 3 stars 4 stars 5 stars
comments

Some Heads Are Gonna Roll Tab

   
Judas Priest
Some heads are gonna roll

Gtr I (E A D G B E) - 'Untitled'
Gtr II (E A D G B E) - 'Untitled'

 Intro
 4/4
  Gtr I
                                          ~~~
|----------|------------|--------------|-------------------|
|-3--------|-(3)--------|-3--(3)-------|-------------------|
|-2--------|-(2)--------|-2--(2)-------|-------------------|
|-0--------|-(0)--------|-0--(0)---4-5-|-(5)---------------|
|-0--------|-(0)--------|-0--(0)---2-3-|-(3)---------------|
|----------|------------|--------------|-------------------|
|
| Gtr II
|----------|------------|--------------|-------------------|
|----------|------------|--------------|-----7-------------|
|----------|------------|--------------|--7------7---------|
|----------|------------|--------------|-------7---7-5-4---|
|----------|------------|--------------|-----------------5-|
|----------|------------|--------------|-------------------|


  Gtrs I, II
    PM--|   PM|        ~~~~                PM--|   PM|
|------------------|-------------------|------------------|
|------------------|-------------------|------------------|
|------------------|-------------------|------------------|
|---------9-----10-|-(10)--------------|---------9-----10-|
|-7-------7------7-|--(7)---------10-9-|-7-------7------7-|
|---0-0-0---0-0----|---------8-10------|---0-0-0---0-0----|


  Gtr I
    ~~~~                PM--|       PM|           ~~~~~~~
|-------------------|-------------------------|----------------------|
|-------------------|-------------------------|----------------------|
|-------------------|-------------------------|----------------------|
|-(10)--------------|----------9--------10----|-(10)-----------------|
|--(7)---------10-9-|-7--------7---------7----|--(7)------------10-9-|
|---------8-10------|---0-0-0-------0-0-------|------------8-10------|
|
| Gtr II
|-------------------|-------------------------|----------------------|
|-------------------|---------12b14-----13b15-|-(13)b15--------------|
|-------------------|---------14b16-----15b17-|-(15)b17--------------|
|-------------------|-------------------------|----------------------|
|--------------10-9-|-------------------------|----------------------|
|---------8-10------|-------------------------|----------------------|


          PM------|         PM|
|-------------------------------------|
|-------------------------------------|
|-------------------------------------|
|---------------------9---------10----|
|---7-----------------7----------7----|
|---------0--0-----0--------0-0-------|
|
|-----------12b14-12-------15---17b19-|
|-(13)b15---15b17----15b17------------|
|-(15)b17-----------------------------|
|-------------------------------------|
|-------------------------------------|
|-------------------------------------|


                           Verse 1
    ~~~~~~~                   PM--|   PM|
|-------------------------|------------------|
|-------------------------|------------------|
|-------------------------|------------------|
|-(10)--------------------|---------9-----10-|
|--(7)-------------10---9-|-7-------7------7-|
|------------8-10---------|---0-0-0---0-0----|
|
|-(17)b19---------(17)\---|------------------|
|-------------------------|------------------|
|-------------------------|------------------|
|-------------------------|------------------|
|-------------------------|------------------|
|-------------------------|------------------|


  Gtrs I, II
|----------------|-0----(0)-------|--------|
|----------------|-0----(0)-------|--------|
|--------------4-|-4----(4)-------|--------|
|-9-----9----2-2-|-2----(2)-----5-|-(5)----|
|-7-----7------2-|-2----(2)-0-2-3-|-(3)----|
|---0-0----0-----|----------------|--------|


     PM--|    PM--|     PM|   PM--|
|-------------------|-----------------|----------------|
|-------------------|-----------------|----------------|
|-------------------|-----------------|-4----(4)-------|
|-10-------10-------|-----------------|-4----(4)-----5-|
|--7--------7-------|-7-----7-------2-|-2----(2)-0-2-3-|
|----0-0-0----0-0-0-|---0-0---0-0-0---|----------------|


               PM------------------------|
|------------|-----------------|----------------|
|------------|-----------------|----------------|
|------------|-----------------|----------------|
|-(5)--------|-----------------|-----------7--4-|
|-(3)--------|-2-2-2-2-2-2-2-2-|-2-2-2-2-2-5--2-|
|------------|-----------------|----------------|


       PM--------|                       PM--------------------|
|------------------|---------------|-----------------|------------------|
|------------------|---------------|-----------------|------------------|
|------------------|---------------|-----------------|------------------|
|-(4)--------------|---5---7\--2-4-|-(4)-------------|------------------|
|-(2)--2-2-2-2-2-2-|-2-3---5\--0-2-|-(2)-2-2-2-2-2-2-|-2-2-2-2-2-0-2-3--|
|------------------|---------------|-----------------|------------------|


 Pre-Chorus
  Gtr I
                                                         ~
|-------------|-------------|-------------|-------------------|
|-------------|-------------|-------------|-------------------|
|-------------|-------------|-------------|-------------------|
|-------------|-------------|-------------|-------------------|
|-(3)-------4-|-(4)-------5-|-(5)-------6-|-(6)----2---0------|
|-------------|-------------|-------------|-----7\---3---2--0-|
|
| Gtr II
|-------------|-------------|-------------|-------------------|
|-------------|-------------|-------------|-------------------|
|-------------|-------------|-------------|-------------------|
|-----------7-|-(7)-------7-|-(7)-------9-|-(9)---------------|
|-----------7-|-(7)-------9-|-(9)-------9-|-(9)---------------|
|-------------|-------------|-------------|-------------------|


   Chorus
    Gtrs I, II
      PM--|   PM--|     PM| ~~~~~~       PM--|
||------------------|----------------|-----------------|-----------------||
||o-----------------|----------------|-----------------|----------------o||
||------------------|----------------|-----------------|-----------------||
||--9-------9-------|-7-----9-(9)----|-9-------9-----5-|-(5)--5--5-7-----||
||o-7-------7-------|-5-----7-(7)----|-7-------7-0-2-3-|-(3)--3--3-5----o||
||----0-0-0---0-0-0-|---0-0----------|---0-0-0---------|-----------------||


                    Verse 2
  Gtr II             Gtrs I, II
                       PM--|   PM|
|-2-0-------------||------------------|----------------|
|-----3-----------||------------------|----------------|
|-------2-0-------||------------------|--------------4-|
|-----------4-0-0-||---------9-----10-|-9-----9----2-2-|
|-----------------||-7-------7------7-|-7-----7------2-|
|-----------------||---0-0-0---0-0----|---0-0----0-----|


                                   PM--|    PM--|
|-0----(0)-------|------------|-------------------|
|-0----(0)-------|------------|-------------------|
|-4----(4)-------|------------|-------------------|
|-2----(2)-----5-|-(5)--------|-10-------10-------|
|-2----(2)-0-2-3-|-(3)--------|--7--------7-------|
|----------------|------------|----0-0-0----0-0-0-|


    PM|   PM--|
|-----------------|----------------|
|-----------------|----------------|
|-----------------|-4----(4)-------|
|-----------------|-4----(4)-----5-|
|-7-----7-------2-|-2----(2)-0-2-3-|
|---0-0---0-0-0---|----------------|


               PM------------------------|
|------------|-----------------|----------------|
|------------|-----------------|----------------|
|------------|-----------------|----------------|
|-(5)--------|-----------------|-----------7--4-|
|-(3)--------|-2-2-2-2-2-2-2-2-|-2-2-2-2-2-5--2-|
|------------|-----------------|----------------|


       PM--------|                        PM--------------------|
|------------------|---------------|------------------|-----------------|
|------------------|---------------|------------------|-----------------|
|------------------|---------------|------------------|-----------------|
|-(4)--------------|---5---7\--2-4-|-(4)--------------|-----------------|
|-(2)--2-2-2-2-2-2-|-2-3---5\--0-2-|-(2)--2-2-2-2-2-2-|-2-2-2-2-2-0-2-3-|
|------------------|---------------|------------------|-----------------|


 Pre-Chorus
  Gtr I
                                                         ~
|-------------|-------------|-------------|-------------------|
|-------------|-------------|-------------|-------------------|
|-------------|-------------|-------------|-------------------|
|-------------|-------------|-------------|-------------------|
|-(3)-------4-|-(4)-------5-|-(5)-------6-|-(6)----2---0------|
|-------------|-------------|-------------|-----7\---3---2--0-|
|
| Gtr II
|-------------|-------------|-------------|-------------------|
|-------------|-------------|-------------|-------------------|
|-------------|-------------|-------------|-------------------|
|-----------7-|-(7)-------7-|-(7)-------9-|-(9)---------------|
|-----------7-|-(7)-------9-|-(9)-------9-|-(9)---------------|
|-------------|-------------|-------------|-------------------|


 Repeat Chorus
  Gtrs I, II
    PM--|   PM--|     PM| ~~~~~~       PM--|
|-----------------|----------------|-----------------|----------------|
|-----------------|----------------|-----------------|----------------|
|-----------------|----------------|-----------------|----------------|
|-9-------9-------|-7-----9-(9)----|-9-------9-----5-|-(5)--5--5-7----|
|-7-------7-------|-5-----7-(7)----|-7-------7-0-2-3-|-(3)--3--3-5----|
|---0-0-0---0-0-0-|---0-0----------|---0-0-0---------|----------------|


    PM--|   PM--|     PM| ~~~~~~       PM--|
|-----------------|----------------|-----------------|-2-0---------------|
|-----------------|----------------|-----------------|-----3-------------|
|-----------------|----------------|-----------------|-------2-0---------|
|-9-------9-------|-7-----9-(9)----|-9-------9-----5-|-----------4-0-(0)-|
|-7-------7-------|-5-----7-(7)----|-7-------7-0-2-3-|-------------------|
|---0-0-0---0-0-0-|---0-0----------|---0-0-0---------|-------------------|


 Bridge
  Gtr I
|----------------|-------------------|-------0-(0)----|-------0-------|
|----------------|-------------------|-------0-(0)----|-------0-------|
|----------------|-------------------|-------4-(4)----|-------4-------|
|-5--------------|-----------------2-|-(2)---2-(2)----|--2----2--4--5-|
|-3-3-3-3-3-3-3--|--3--3-3-3-3-3-3-2-|-(2)------------|--2-------2--3-|
|----------------|-----------------0-|-(0)------------|--0------------|
|
| Gtr II
|----------------|-------------------|----------------|-------------3-|
|----------------|-------------------|----------------|---------------|
|----------------|-------------------|----------------|---------------|
|-5--------------|-(5)-------------2-|-(2)------------|-(2)-----------|
|-3--------------|-(3)---------------|----------------|---------------|
|----------------|-------------------|----------------|---------------|

[ Tab from: http://www.guitartabs.cc/tabs/j/judas_priest/some_heads_are_gonna_roll_tab.html ]
|-------------------|---------------------------|
|-------------------|---------------------------|
|-------------------|---------------------------|
|-(5)---------------|----------------------4----|
|-(3)-3-3-3-3-3-3-3-|--3--3-3-3--3--3--3---2----|
|-------------------|---------------------------|
|
|-(3)---------------|-(3)-------(3)---(3)s11----|
|-------------------|---------------------------|
|-------------------|------------------------11-|
|-------------------|---------------------------|
|-------------------|---------------------------|
|-------------------|---------------------------|


|-------------------|-------------------------|
|-------------------|-------------------------|
|-------------------|-------------------------|
|--(4)----5--(5)----|--7----7--(7)-9-9--9-----|
|--(2)----3--(3)----|--4----5--(5)-7-7--7-----|
|-------------------|-------------------------|
|
|-------------------|------------------22b24--|
|-------------------|-10---12-(12)------------|
|-(11)---12-(12)----|-------------------------|
|-------------------|-------------------------|
|-------------------|-------------------------|
|-------------------|-------------------------|


 Solo (Tipton)
          PM---|   PM----|         PM| ~~~~~~           PM--------|
|--------------------------|----------------------|-----------------------------------|
|--------------------------|----------------------|-----------------------------------|
|--------------------------|----------------------|-----------------------------------|
|---9------------9---------|--7--------9-(9)------|-9-------------------9-----------5-|
|---7------------7---------|--5--------7-(7)------|-7-------------------7---0---2---3-|
|---------0--0-0---0--0--0-|-------0-0------------|-----0----0-----0------------------|
|
|            ~~
|-(22)b24---22-------------|----------------------|-----------------------------------|
|--------------------------|----------------------|-----------------------------------|
|--------------------------|----------------------|-----9------10-10------------------|
|--------------------------|----------------------|---9-----10----------------0-----0-|
|--------------------17\---|----------------------|-7-----8----------9h10p9-x---9-x---|
|--------------------17\---|-10b12r===========10--|-----------------------------------|


|-----------------------------------------------------|
|-----------------------------------------------------|
|-----------------------------------------------------|
|-(5)--------------5-----------5-----7----------------|
|-(3)--------------3-----------3-----5----------------|
|-----------------------------------------------------|
|
|-----------------------------------------------------|
|-----------------------------------------------------|
|-----14b15r14-12----14----12-------------------------|
|-(0)-------------14----14----14-12----14----12-------|
|-----------------------------------14----14----14p12-|
|-----------------------------------------------------|


        PM--------|          PM------------|
|------------------------------------------------|
|------------------------------------------------|
|------------------------------------------------|
|--9-------------------9-------------------------|
|--7-------------------7-------------------------|
|-------0---0-------0--------0-----0--------0----|
|
|-15b17r==(15)b16r(15)---12h15p12----12b14----12-|
|---------------------------------15-------15----|
|------------------------------------------------|
|------------------------------------------------|
|------------------------------------------------|
|------------------------------------------------|


         PM---|             ~~~~~~~~~~
|-----------------------------------------------------------------|
|-----------------------------------------------------------------|
|-----------------------------------------------------------------|
|--7------------------------9-----(9)-----------------------------|
|--5------------------------7-----(7)-----------------------------|
|--------0-----0--------------------------------------------------|
|
|-------12-14----12b14--------------------------------------------|
|-15b17-------15-------15-(15)p12-15p12---------------------------|
|---------------------------------------14p12-14b16-(14)p12-------|
|-----------------------------------------------------------14p12-|
|-----------------------------------------------------------------|
|-----------------------------------------------------------------|


         PM--------|
|-----------------------------------------------------------------|
|-----------------------------------------------------------------|
|-----------------------------------------------------------------|
|--9------------------------9--------------------------5----------|
|--7------------------------7--------0--------2--------3----------|
|--------0----0-----0---------------------------------------------|
|
|-----------------------------------------------------------------|
|--------------------------------------------------------12h13h15-|
|-----------------------------------------------11h12h13----------|
|------------------------12---14----------12-14-------------------|
|----------14---12h14h15---------12h14h15-------------------------|
|-12h14h15--------------------------------------------------------|


|------------------------------------------------------------|
|------------------------------------------------------------|
|------------------------------------------------------------|
|-(5)----------------5-----------5-----7---------------------|
|-(3)----------------3-----------3-----5---------------------|
|------------------------------------------------------------|
|
|------------------------------------------------------------|
|-15p13p12h13p12----12---------------------------------------|
|----------------14----14p12h14p12-11h12p11----11------------|
|-------------------------------------------14----14p12\-7---|
|------------------------------------------------------------|
|------------------------------------------------------------|


 Solo (Downing)
        PM--|   PM----|         PM| ~~~~~~
|-----------------------|---------------------|
|-----------------------|---------------------|
|-----------------------|---------------------|
|--9----------9---------|---7-------9-(9)-----|
|--7----------7---------|---5-------7-(7)-----|
|-------0-0-0---0--0--0-|-------0-0-----------|
|
|-----------------------|-----0---------------|
|-----------------------|-3S5---0---5--8p5s=3-|
|-----------------------|---------7-----------|
|-(7)b9r==========(7)-5-|---------------------|
|-----------------------|---------------------|
|-----------------------|---------------------|


        PM---|
|---------------------------------|
|---------------------------------|
|---------------------------------|
|--9-----------------9----------5-|
|--7-----------------7----0--2--3-|
|-------0--0--0-------------------|
|
|---------10----------------------|
|-10b12------10b12r(10)-(10)-8-10-|
|---------------------------------|
|---------------------------------|
|---------------------------------|
|---------------------------------|


                                 PM--|        PM-------|
|----------------------------|---------------------------|
|----------------------------|---------------------------|
|----------------------------|---------------------------|
|-5---5---5--7---------------|-9-------9-----------------|
|-3---3---3--5---------------|-7-------7-----------------|
|----------------------------|---0-0-0--------0--0-----0-|
|
|-7--------------------------|---------------------------|
|---8------------------------|---------------------------|
|-----9p7h9----7-------------|---------------------------|
|-----------10---9h10-7h9----|---------------------------|
|-------------------------10-|-7s5-7-5h7-(7)-(7)-7-5-----|
|----------------------------|---------------------------|


       PM-| ~~~~~~~~~~
|------------------------------------|
|------------------------------------|
|------------------------------------|
|-7---------9--(9)-------------------|
|-5---------7--(7)-------------------|
|------0--0--------------------------|
|
|----------------------------15b17r==|
|------------------------------------|
|-------------/14b16r(14)p12---------|
|-7b9r(7)p5-7------------------------|
|------------------------------------|
|------------------------------------|


            PM-------|
|----------------------------------------------|
|----------------------------------------------|
|----------------------------------------------|
|---9-------------------9-----------------5----|
|---7-------------------7-----0-----2-----3----|
|-----------0------0-0-------------------------|
|
|                  ~~
|-(15)b17r(15)b16-15---15p12----12-------------|
|----------------------------15----15p12-------|
|----------------------------------------14----|
|-------------------------------------------14-|
|----------------------------------------------|
|----------------------------------------------|


|--------------------------------|
|--------------------------------|
|--------------------------------|
|-(5)--------5---------5--7------|
|-(3)--------3---------3--5------|
|--------------------------------|
|
|--------------------------------|
|--------------------------------|
|-12p9----9----------------------|
|------12---12p9----9------------|
|----------------12---12-10-9----|
|-----------------------------12-|


 Pre-Chorus
                                                       ~
|-----------|-------------|-------------|-------------------|
|-----------|-------------|-------------|-------------------|
|-----------|-------------|-------------|-------------------|
|-----------|-------------|-------------|-------------------|
|-3-------4-|-(4)-------5-|-(5)-------6-|-(6)----2---0------|
|-----------|-------------|-------------|-----7\---3---2--0-|
|
|-----------|-------------|-------------|-------------------|
|-----------|-------------|-------------|-------------------|
|-----------|-------------|-------------|-------------------|
|---------7-|-(7)-------7-|-(7)-------9-|-(9)---------------|
|---------7-|-(7)-------9-|-(9)-------9-|-(9)---------------|
|-----------|-------------|-------------|-------------------|


   Chorus
    Gtrs I, II
      PM--|   PM--|     PM| ~~~~~~       PM--|
||------------------|----------------|-----------------|---------------||
||o-----------------|----------------|-----------------|--------------o||
||------------------|----------------|-----------------|---------------||
||--9-------9-------|-7-----9-(9)----|-9-------9-----5-|-(5)--5--5-7---||
||o-7-------7-------|-5-----7-(7)----|-7-------7-0-2-3-|-(3)--3--3-5--o||
||----0-0-0---0-0-0-|---0-0----------|---0-0-0---------|---------------||


   Repeat Main Riff and fade
      PM--|   PM|        ~~~~                PM--|   PM|       ~~
                                                                              3x
||-------------------|-------------------|------------------|-----------------||
||o------------------|-------------------|------------------|----------------o||
||-------------------|-------------------|------------------|-----------------||
||----------9-----10-|-(10)--------------|---------9-----10-|-10--------------||
||o-7-------7------7-|--(7)---------10-9-|-7-------7------7-|--7---------10-9o||
||----0-0-0---0-0----|---------8-10------|---0-0-0---0-0----|-------8-10------||


    PM--|   PM|        ~~~~                PM--|   PM|       ~~
|------------------|-------------------|------------------|-----------------*|
|------------------|-------------------|------------------|-----------------*|
|------------------|-------------------|------------------|-----------------*|
|---------9-----10-|-(10)--------------|---------9-----10-|-10--------------*|
|-7-------7------7-|--(7)---------10-9-|-7-------7------7-|--7---------10-9-*|
|---0-0-0---0-0----|---------8-10------|---0-0-0---0-0----|-------8-10------*|



Comments