Judas Priest - Revolution Chords & Tabs

 

Revolution Chords & Tabs

Judas Priest Chords & Tabs

Version: 2 Type: Tab 0 ratings
1 star 2 stars 3 stars 4 stars 5 stars
comments

Revolution Tab

                           JUDAS PRIEST
                           REVOLUTION


STANDARD TUNING
EADGBe

---------------------------------|
---------------------------------|
--9-9-9-9-12-9-9--3-3-4-4-5------|
--9-9-9-9-12-9-9--3-3-4-4-5------|
--7-7-7-7-10-7-7--1-1-2-2-3------|
---------------------------------|
[ Tab from: http://www.guitartabs.cc/tabs/j/judas_priest/revolution_tab_ver_2.html ]
-----------------------|
-----------------------|
--9-9-9-9-12-9-9-------|
--9-9-9-9-12-9-9-------|
--7-7-7-7-10-7-7-------|
-----------------------|

next there is a fill like this. its not right but it gives you the idea
-----------------------------|
-----------------------------|
-----------------------------|
--9b-9--7b-7-7p5-------------|
-----------------------------|
-----------------------------|


im still workin on the rest of this
this is a great song
peace
Comments