Judas Priest - Revolution Chords & Tabs

 

Revolution Chords & Tabs

Judas Priest Chords & Tabs

Version: 1 Type: Tab 0 ratings
1 star 2 stars 3 stars 4 stars 5 stars
comments

Revolution Tab

JUDAS PRIEST
REVOLUTION from "Angel of Retribution"
Tabber:Izzy Snakes
Sorry I'm cant figure out the incredible lead part or the verse. I'm not sure.
============================================================================
Riff 1-Heavy Wah w/ Filter & Distortion
E |1/3-3-3-3\1-1-x--------------1/3-3-3\1-1|
A |3/5-5-5-5\3-3----1-1-2-2-2/3-3/5-5-5\3-3|
D |3/5-5-5-5\3-3----1-1-2-2-2/3-3/5-5-5\3-3|
G |---------------1-1-2-2-2/3--------------|
B |----------------------------------------|
E |----------------------------------------|
Riff 2
E |1/3-3-3-3\1-1-1/3-3-xxxx-1/3-3-3-3\1------|
A |3/5-5-5-5\3-3-3/3-3-xxxx-3/5-5-5-5\3-1-2-3|
D |3/5-5-5-5\3-3-3/3-3-xxxx-3/5-5-5-5\3-3-4-5|
G |-------------------------------------3-4-5|
B |------------------------------------------|
E |------------------------------------------|
Riff 3                Riff 3 part 2& Riff 4
E |1111-3-1-1-3-11-3xxxx:| E |-------------|
A |3333-5-3-3-5-33-5----:| A |1-1-1-2-2-3-5|
D |3333-5-3-3-5-33-5----:| D |3-3-1-4-4-5-7|
G |---------------------:| G |3-3-1-4-4-5-7|
B |---------------------:| B |-------------|
E |---------------------:| E |-------------|
Structure
Riff 1x2 = Intro
Riff 2x6 = Main Riff/Chorus
Verse
Riff 2x3 = Chorus
Verse
Riff 2x3 = Chorus
Solo 1-Hard to hear rhythm
Riff 3x2 = Bridge
Riff 4x3 = Bridge exit
Riff 2x6 = Under Solo
No rhythm guitar
Riff 2 repeat untill fadeout

I'm trying to figure out the lead part once I get that I will put up the full song!
I'm not 100% sure so I will take any critism you guys have.
[ Tab from: http://www.guitartabs.cc/tabs/j/judas_priest/revolution_tab.html ]
Comments