Judas Priest - On For The Road Chords & Tabs

 

On For The Road Chords & Tabs

Judas Priest Chords & Tabs

Version: 1 Type: Tab 0 ratings
1 star 2 stars 3 stars 4 stars 5 stars
comments

On For The Road Tab

On for the Road by Judas Priest from the Rocka Rolla album:

 m : palm mute
 + : let ring
 h : hammer on
 p : pull off
 / : slide


 Main Riff:

e|-----------------------------------------------------------------------|
b|-----------------------------------------------------------------------|
g|-----------------------------------------------------------------------|
d|-----------------------------------------------------------------------|
a|---------------------9++9----5h7----------------9++9----5h7------------|
E|-----0m-0m-0m-0m-0m--7++7/5h7---0m-0m-0m-0m-0m--7++7/5h7---------------|



 Chorus:  

I didn't find out the exact chorus but it is something like this
[ Tab from: http://www.guitartabs.cc/tabs/j/judas_priest/on_for_the_road_tab.html ]
e|-----------------------------------------------------------------------|
b|-----------------------------------------------------------------------|
g|-----------------------------------------------------------------------|
d|----14--14-14-------------------14--14-14------------------------------|
a|----12--12-12-------------------12--12-12------------------------------|
E|-----------------------------------------------------------------------|
                 On for the Road!           Cheering out load!



 Chorus end:

Play this the 4th time

e|-----------------------------------------------------------------------|
b|-----------------------------------------------------------------------|
g|---------------------------------12++++13++++--------------------------|
d|----14--14-14--14p13p12-14p13p12---------------------------------------|
a|----12--12-12----------------------------------------------------------|
E|-----------------------------------------------------------------------|

 Now play main riff again, and that is all I've figured out so far
 Enjoy!  /Zeehacker
Comments