Judas Priest - Living After Midnight Chords & Tabs

 

Living After Midnight Chords & Tabs

Judas Priest Chords & Tabs

Version: 3 Type: Tab 0 ratings
1 star 2 stars 3 stars 4 stars 5 stars
comments

Living After Midnight Tab

Intro:

E--------------------                   ------------------------------
B--------------------                   ------------------------------
G--------------------                   ------------------------------
D--7-7--5------------                   --7-7--5----------------------
A--9-9--7--7-7----7--                   --9-9--7--7-7--7-7-7---7-7-7--
E----------5-5--x-9-- x2    Third time: ----------5-5--9-9-9---9-9-9--



E--------------------                   ------------------------------
B--------------------                   ------------------------------
G--------------------                   ------------------------------
D--7-7--5------------                   --7-7--5----------------------
A--9-9--7--7-7----7--                   --9-9--7--7-7--7-7-7---7-7-7--
E----------5-5--x-9-- x2    Third time: ----------5-5--9-9-9---9-9-9--

[ Tab from: http://www.guitartabs.cc/tabs/j/judas_priest/living_after_midnight_tab_ver_3.html ]
E----------------------------------------------------------------
B----------------------------------------------------------------
G----------------------------------------------------------------
D----------------------------------------------------------------
A-2-2-2-2-2-2-2-2-2-2-2-2-2-2-2-2-5--2-2-2-2-2-2-5--2-2-2-2-2-2--
E-0-0-0-0-0-0-0-0-0-0-0-0-0-0-0-0-3--0-0-0-0-0-0-3--0-0-0-0-0-0-- 


E-----------------------
B-----------------------
G-----------------------
D-----------------4-----
A-5------5-4------2-----
E-3------3-2------------


E-------------------------------------------------------------------
B-2-3-3-2--2-3-3-3-2------------------------------------------------
G-2-2-2-2--2-2-2-2-2------------------------------------------------
D-2-3-3-2--2-3-3-3-2------------------------------------------------
A-0-0-0-0--0-0-0-0-0---2-2-2-2-2-2-2-5--2-2-2-2-2-2-5--2-2-2-2-2-2--
E----------------------0-0-0-0-0-0-0-2--0-0-0-0-0-0-2--0-0-0-0-0-0--


E----------------------------------------------------------------
B----------------------------------------------------------------
G----------------------------------------------------------------
D-4-----7--4-----------------------------------------------------
A-2-----5--2-----------------------------------------------------
E----------------------------------------------------------------
Comments