Judas Priest - Johnny B Goode Chords & Tabs

 

Johnny B Goode Chords & Tabs

Judas Priest Chords & Tabs

Version: 1 Type: Tab 0 ratings
1 star 2 stars 3 stars 4 stars 5 stars
comments

Johnny B Goode Tab

   
-----------------------------------------------------------------------------
			     Johnny B. Goode - Judas Priest
-----------------------------------------------------------------------------
Tabbed by: Anthrax765
Tuning: Standard

Intro:
|/7-7-7-7-7-----------------------------------------|
|/7-7-7-7-7-----------------------------------------|
|-----------9-7-------------------------------------|
|---------------9-9-9-9-9-9-7-----------------------|
|-----------------------------9-8-7----7-8-7--------|
|-----------------------------------10-------10-7-5-|

|----------------------------------------------------------|
|----------------------------/\----------------------------|
|-----4-----4---6-----6-----6-7-----4-----4---9-10-9-7-9-7-|
|-----4-----4---6-----6-----6-7-----4-----4---9-10-9-7-9-7-|
|----------------------------------------------------------|
|-7-7---7-7---7---7-7---7-7-----7-7---7-7---7--------------|

|-----------------12--12-------------------------------|  
|-------------------12---------------------------------|
|-7---7-7-9-9-7-----------7---7-7-9-9-7---9-10-9-7-9-7-|
|-7---7-7-9-9-7-----------7---7-7-9-9-7---9-10-9-7-9-7-|
|------------------------------------------------------|
|------------------------------------------------------|

Verse:
|-------------------------------|
|-3-----------------------------|
|-4-----------------------------|
|-4-----------------------------|
|-2-----2-0-2-0-2-5-2-0-2-0-2-2-|
|---2-5-------------------------|
[ Tab from: http://www.guitartabs.cc/tabs/j/judas_priest/johnny_b_goode_tab.html ]
|---------------------0-2-2---|---------------|
|-------------------3-3-3-3---|*-------------*|
|-9---9-9-7---------4-0-2-2-2-|---------------|
|-9---9-9-7---_---2-4-0-0-0-2-|------4-4-4-4--|
|-7---7-7-5--/-\----2-x-----0-|*--/\-4-4-4-4-*|
|-----------0-3-0-----3-------|--0-2-2-2-2-2--|

Chorus:
B5     E      F#
|---------------|
|---------------|
|---4-----6-3---|
|-------------4-|
|-6---6-7-------|
|---------------|

Solo:
First there is some tunes with an C# as background
After that there is a bright E as background and a pentatonic solo in E
all this is followed by this:

  Bm G   A   Bm  G   A    Repeat 4 times then play one time with 8va
|-----------------------|
|*---------------------*| This is followed by G A Bm
|-----------------------|
|--------2-------2-0----|
|*-2-4-5---4-0-2-----4-*|
|-----------------------|

Last Chorus:
D5     G      A
|----------------|
|----------------|
|---7------9-6---|
|--------------7-|
|-9---9-10-------|
|----------------|

=============================================================================

Lyrics:

Deep down in Louisiana close to New Orleans
Way back up in the woods amongst the evergreens
There stood an old cabin made of earth and wood
Where lived a country boy named Johnny B. Goode
That never ever learned to read and write so well
But he could play the guitar just like ringing a bell

Go go Go Johnny go
Johnny B. Goode

He used to carry his guitar in a gunny sack
Go sit beneath the tree by the railroad track
Old engineer sitting in the shade
Strumming with the rhythm that the drivers made
The people passing by would stop and say
"Oh my but how that little country boy could play"

Go go Go Johnny go
Johnny B. Goode

His mother told him someday you will be a man
And you will be the leader of a big old band
Many people coming from miles around
To hear you play your music till the sun goes down
Maybe some day your name will be in lights, saying
  Johnny B. Goode tonight
Comments