Judas Priest - Jawbreaker Chords & Tabs

 

Jawbreaker Chords & Tabs

Judas Priest Chords & Tabs

Version: 1 Type: Bass Tab 0 ratings
1 star 2 stars 3 stars 4 stars 5 stars
comments

Jawbreaker Bass Tab

   
Intro

|-------|-------|-------|-------|-------|
|-------|-------|-------|-------|-------|
|---7---|---0---|---3---|---2---|--3-5--|
|-------|-------|-------|-------|-------|




Pre-Verse

|-------|-------|-------|-------|-------|-------|-------|
|-------|-------|-------|-------|-------|-------|-------|
|--3-5--|-------|-------|--3-5--|---5---|---5---|-------|
|-------|-------|-------|-------|-------|-------|---0---|



Verse B

|-------|-------|-------|-------|-------|-------|-------|-------|-------|
|-------|-------|-------|-------|-------|-------|-------|-------|-------|
|--5555-|--7777-|--3333-|--3333-|--5555-|--7777-|--3333-|--3333-|--5555-|
|-------|-------|-------|-------|-------|-------|-------|-------|-------|

|-------|-------|-------|-------|
|-------|-------|-------|-------|
|--7777-|--0-2--|--3-5--|---7---|
|-------|-------|-------|-------|



Pre-Chorus

|-------|-------|-------|-------|
|-------|-------|-------|-------|
|---0---|---2---|---3---|---5---|
|-------|-------|-------|-------|



Chorus

|-------|-------|-------|-------|
|-------|-------|-------|-------|
|--000--|-77777-|--3333-|--532--|
|-------|-------|-------|-------|
|		|
|_______________|
       X 3



Verse A

|-------|-------|-------|-------|
|-------|-------|-------|-------|
|--5555-|--5555-|--3333-|--3333-|
|-------|-------|-------|-------|



Fill A
[ Tab from: http://www.guitartabs.cc/tabs/j/judas_priest/jawbreaker_btab.html ]
|-------|-------|
|-------|-------|
|--0000-|--32---|
|-------|-------|



Solo A

|-------|-------|-------|-------|-------|-------|-------|-------|-------|
|-------|-------|-------|-------|-------|-------|-------|-------|-------|
|---0---|-00000-|---3---|---0---|-00000-|---3---|---0---|-00000-|--3/3--|
|-------|-------|-------|-------|-------|-------|-------|-------|-------|



Fill B

|-------|
|-------|
|--7-5--|
|-------|



Solo B

|-------|-------|-------|-------|-------|-------|-------|-------|
|-------|-------|-------|-------|-------|-------|-------|-------|
|--2222-|--2222-|--3333-|--3333-|--5555-|--5555-|--7777-|--7777-|
|-------|-------|-------|-------|-------|-------|-------|-------|



Fill C

|-------|-------|-------|-------|-------|-------|-------|-------|
|-------|-------|-------|-------|-------|-------|-------|-------|
|--7-5--|--3-2--|---0---|--7-5--|--3-2--|---0---|---0---|---3---|
|-------|-------|-------|-------|-------|-------|-------|-------|



Ending

|-------|-------|-------|-------|-------|
|-------|-------|-------|-------|-------|
|---0---|---0---|---0---|--0000-|--3320-|
|-------|-------|-------|-------|-------|




PLAY:

Intro
Pre-Verse
Verse B
Pre-Chorus
Chorus
Verse A x 4
Verse B
Pre-Chorus
Chorus
Fill A
Solo A X 6
Solo B x 2
Fill B
Solo B x 2
Fill C
Verse B
Pre-Chorus
Chorus x 4
Fill A
Ending
Comments