Judas Priest - Hot Rockin Chords & Tabs

 

Hot Rockin Chords & Tabs

Judas Priest Chords & Tabs

Version: 1 Type: Tab

Hot Rockin Tab

----------------------------------------------------------------------------
			 Hot Rockin - Judas Priest
----------------------------------------------------------------------------
Tabbed by: AC/DCgal
Email: ashleythepoopface@yahoo.com

Tuning: standard

e|------------------|
B|------------------|
G|------------------|
D|--7-7--7-7--7-5---|
A|--7-7--7-7--7-5---|
E|--5-5--5-5--5-3---|

e|--------------------------------------|
B|--------------------------------------|
G|--------------5-5---------------------|    x6
D|--7--7--7--7--5-5--5--5--5--5--7-7----|
A|--7--7--7--7--3-3--5--5--5--5--7-7----|
E|--5--5--5--5-------3--3--3--3--5-5----|

e|-----------------------------------------------|
B|-----------------------------------------------|
G|--5-----------5-----7----5-------------5-7-----|    x2
D|--5-----7-----5-----7----5----7------7-5-7-----|
A|--3-----7-----3-----5----3----7------7-3-5-----|
E|--------5---------------------5------5---------|

e|--------------------------------------|
B|--------------------------------------|
G|--------------5-5---------------------|    x4
D|--7--7--7--7--5-5--5--5--5--5--7-7----|
A|--7--7--7--7--3-3--5--5--5--5--7-7----|
E|--5--5--5--5-------3--3--3--3--5-5----|

e|-----------------------------------------------|
B|-----------------------------------------------|
G|--5-----------5-----7----5-------------5-7-----|    x2
D|--5-----7-----5-----7----5----7------7-5-7-----|
A|--3-----7-----3-----5----3----7------7-3-5-----|
E|--------5---------------------5------5---------|
[ Tab from: http://www.guitartabs.cc/tabs/j/judas_priest/hot_rockin_tab.html ]
e|--------------------------------------|
B|--------------------------------------|
G|--------------5-5---------------------|    x4 (plays thru solo)
D|--7--7--7--7--5-5--5--5--5--5--7-7----|
A|--7--7--7--7--3-3--5--5--5--5--7-7----|
E|--5--5--5--5-------3--3--3--3--5-5----|

e|------------------------|
B|------------------------|
G|------------------------|    x11
D|-----------------7-9-7--|
A|-----------------7-9-7--|
E|-0-0-0-0-0-0-0-0-5-7-5--|

e|--------------------------------------|
B|--------------------------------------|
G|--------------5-5---------------------|    x4
D|--7--7--7--7--5-5--5--5--5--5--7-7----|
A|--7--7--7--7--3-3--5--5--5--5--7-7----|
E|--5--5--5--5-------3--3--3--3--5-5----|

e|-----------------------------------------------|
B|-----------------------------------------------|
G|--5-----------5-----7----5-------------5-7-----|    x2
D|--5-----7-----5-----7----5----7------7-5-7-----|
A|--3-----7-----3-----5----3----7------7-3-5-----|
E|--------5---------------------5------5---------|

e|--------------------------------------|
B|--------------------------------------|
G|--------------5-5---------------------|    x1
D|--7--7--7--7--5-5--5--5--5--5--7-7----|
A|--7--7--7--7--3-3--5--5--5--5--7-7----|
E|--5--5--5--5-------3--3--3--3--5-5----|

e|--------------------|
B|--------------------|
G|--------------5-5---|    x1
D|--7--7--7--7--5-5---|
A|--7--7--7--7--3-3---|
E|--5--5--5--5--------|

e|------------------|
B|------------------|
G|------------------|    x1
D|--7-7--7-7--7-9---|
A|--7-7--7-7--7-9---|
E|--5-5--5-5--5-7---|

i'm pretty sure thats all right. its the whole song except for the solo. rock on!!!