Judas Priest - Heroes End Chords & Tabs

 

Heroes End Chords & Tabs

Judas Priest Chords & Tabs

Version: 2 Type: Tab 0 ratings
1 star 2 stars 3 stars 4 stars 5 stars
comments

Heroes End Tab

Artist = Judas Priest

Song = HEROES END 

Normal tuning.



~~~~ = Vibrato
PM = Palm Mute
PO = Pull-Off

Intro         
               ~~~~~     [PM]  [PM]  [PM]
E------------------------------------------------------
B------------------------------------------------------
G----2-------2------2---------5-----7-----2------------
D----2-------2------2---------5-----7-----2------------
A----0-------0------0-----0-0---0-0---0-0-0------------
E--------------3---------------------------------------


       ~~~~~           ~~  
E----------------------------
B----------------------------
G----2------2----7-6-5----5--
D----2------2----7-6-5----5--
A----0------0----------7-----
E------3---------------------

Main Riff
         ~~[PM]     [PM]
E------------------------------------------------------
B------------------------------------------------------
G---------------2--3---7-6-5---------------------------
D---------------2--3---7-6-5---------------------------
A----0-2-3--0-0------0---------------------------------
E------------------------------------------------------

This version of the main riff appears halfway through the verse.

    
E----------------------------
B----------------------------
G----------------------------
D-------------3-3------------
A----0-2-3--1--------7-7-7---
E-----------------0--0-------
[ Tab from: http://www.guitartabs.cc/tabs/j/judas_priest/heroes_end_tab_ver_2.html ]
Chorus
                         ~~
E-------------------------------------
B-------------------------------------
G-------------------------------------
D------------------------5------------
A----7-7-7-5-7-5-7-7-5-7---7-5-7------
E----0-------------------------------- RPT 4 x

Backing for 1st guitar solo

E-----------------------------
B-----------------------------
G-----------------------------
D----------------------5------
A--------------------5--------
E---0---3---5---6--7---------- RPT 3 x


Play this riff under the end of the 1st guitar solo.  Hold the E chord to start the heavy interlude.
 
E------------------------------------
B------------------------------------
G------------------------------------
D-------------------------2----(2)---
A--------------------5----2----(2)---
E---0---3---5---6--7---3--0----(0)---

Heavy Interlude

 [-------------Heavy Palm Mute------]   PO     
E-------------------------------------------------------------------
B-------------------------------------------------------------------
G-------------------------------------------------------------------
D---------------------------------------------------5-----------2---
A-2-2-2-2-2-2-2-2-2-2-2-2-2-2-2-2--2--2-------2-3-3---3---------2---
E-0-0-0-0-0-0-0-0-0-0-0-0-0-0-0-0--0--0-3-0-5-----------3-3-2-3-0---  RPT 4 x

End of heavy interlude
     PO
E-----------------------------
B-----------------------------
G-----------------------------
D----------------5------------
A--2-------2-3-3---3----------
E--0-3-0-5-----------3-3-2-3--  RPT 3 x

Back to main riff and chorus.

The outro is just the 1st guitar solo backing with some crazy trem bar soloing. 
At  the very end hold the G chord for a dramatic pause then crash on the E chord.

 


Comments