Judas Priest - Heavy Duty/defenders Of The Faith Chords & Tabs

 

Heavy Duty/defenders Of The Faith Chords & Tabs

Judas Priest Chords & Tabs

Version: 1 Type: Tab 0 ratings
1 star 2 stars 3 stars 4 stars 5 stars
comments

Heavy Duty/defenders Of The Faith Tab

   
udas Priest
Heavy Duty 

Gtr I (E A D G B E) - 'Untitled'
Gtr II (E A D G B E) - 'Untitled'
Gtr III (E A D G B E) - 'Untitled'

                       Intro
  Slow Rock Q=78
                        A     B5/A  A5/E                  B5/A  A5/EC  D
 4/4
  Gtrs I, II
|---------|---------||----------------------------|------------------------||
|---------|---------||o---------------------------|-----------------------o||
|---------|---------||--2-x-x-4-(4)S2-2-x-x-----2-|-2-x-x-4-(4)p2p0-5--7---||
|---------|---------||--2-x-x-4-(4)S2-2-x-x-----2-|-2-x-x-4-(4)p2p0-5--7---||
|---------|---------||o-0-----0-------0---------0-|-0-----0---------3--5--o||
|---------|---------||----------------------0h3---|------------------------||


  Gtr I
  \4____________\2______/
|------------|----------------|
|------------|----------------|
|-2----------|-(2)-----(2)----|
|-2----------|-(2)-----(2)----|
|-0----------|-(0)-----(0)----|
|------------|----------------|


   1st & 2nd Verses
    A                       A     B5/A  A5/E
    Gtrs I, II
||-----------|------------|---------------------------|
||o----------|------------|---------------------------|
||--2--------|-(2)--------|-2-x-x-4-(4)S2-2-x-x-----2-|
||--2--------|-(2)--------|-2-x-x-4-(4)S2-2-x-x-----2-|
||o-0--------|-(0)--------|-0-----0-------0---------0-|
||-----------|------------|---------------------0h3---|


  A     B5/A  A5/EC  D    A
|-----------------------|----------|--------|
|-----------------------|----------|--------|
|-2-x-x-4-(4)p2p0-5--7--|-2--------|-(2)----|
|-2-x-x-4-(4)p2p0-5--7--|-2--------|-(2)----|
|-0-----0---------3--5--|-0--------|-(0)----|
|-----------------------|----------|--------|


  A     B5/A  A5/E                  B5/A  A5/EC  D    C
|---------------------------|-----------------------|------|
|---------------------------|-----------------------|------|
|-2-x-x-4-(4)S2-2-x-x-----2-|-2-x-x-4-(4)p2p0-5--7--|-5----|
|-2-x-x-4-(4)S2-2-x-x-----2-|-2-x-x-4-(4)p2p0-5--7--|-5----|
|-0-----0-------0---------0-|-0-----0---------3--5--|-3----|
|---------------------0h3---|-----------------------|------|


                                1.
                     D          E  G/E E  G/E
|------------------|----------|---------------|
|------------------|----------|---------------|
|-(5)------(5)-x-x-|-7--------|----0\-----0\--|
|-(5)------(5)-x-x-|-7--------|----9\-----9\--|
|-(3)------(3)-x-x-|-5--------|-7--7\--7--7\--|
|------------------|----------|-0------0------|


  A     B5/A  A5AE                  B5/A  A5/EC  D
|---------------------------|-----------------------|
|---------------------------|-----------------------|
|-2-x-x-4-(4)S2-2-x-x-----2-|-2-x-x-4-(4)p2p0-5--7--|
|-2-x-x-4-(4)S2-2-x-x-----2-|-2-x-x-4-(4)p2p0-5--7--|
|-0-----0-------0---------0-|-0-----0---------3--5--|
|---------------------0h3---|-----------------------|

[ Tab from: http://www.guitartabs.cc/tabs/j/judas_priest/heavy_dutydefenders_of_the_faith_tab.html ]
  A     B5/A  A5AE                  B5/A  A5/EC  D
|---------------------------|-----------------------|
|---------------------------|-----------------------|
|-2-x-x-4-(4)S2-2-x-x-----2-|-2-x-x-4-(4)p2p0-5--7--|
|-2-x-x-4-(4)S2-2-x-x-----2-|-2-x-x-4-(4)p2p0-5--7--|
|-0-----0-------0---------0-|-0-----0---------3--5--|
|---------------------0h3---|-----------------------|


                                                        2.
  A                     A                               E  G/E E  G/E
                        Gtr I                           Gtrs I, II
                        \4____________\2______/
|-----------|---------|------------|-----------------||-----------------||
|-----------|---------|------------|----------------o||-----------------||
|-----------|---------|-2----------|-(2)-----(2)-----||----0\-----0\----||
|-7\--------|---------|-2----------|-(2)-----(2)-----||----9\-----9\----||
|-7\--------|---------|-0----------|-(0)-----(0)----o||-7--7\--7--7\----||
|-5\--------|---------|------------|-----------------||-0------0--------||


   Bridge
    A     B5/A  A5AE                  B5/A  A5G5CD D
                                                       3x
||----------------------------|------------------------||
||o---------------------------|-----------------------o||
||--2-x-x-4-(4)S2-2-x-x-----2-|-2-x-x-4-(4)p2p0-5--7---||
||--2-x-x-4-(4)S2-2-x-x-----2-|-2-x-x-4-(4)p2p0-5--7---||
||o-0-----0-------0---------0-|-0-----0---------3--5--o||
||----------------------0h3---|------------------------||


  A     B5/A  A5AE                  B5/A  A5G5CD A D
|---------------------------|------------------------||
|---------------------------|------------------------||
|-2-x-x-4-(4)S2-2-x-x-----2-|-2-x-x-4-(4)p2p0-5----7-||
|-2-x-x-4-(4)S2-2-x-x-----2-|-2-x-x-4-(4)p2p0-5--7-7-||
|-0-----0-------0---------0-|-0-----0---------3--7-5-||
|---------------------0h3---|--------------------5---||


   Out-Chorus
    D        A D        A D      G A
    Gtrs I, III
||---------------|-------------------|
||o--------------|-------------------|
||--(7)--------7-|-(7)----7-(7)------|
||--(7)------7-7-|-(7)--7-7-(7)--5-7-|
||o-(5)------7-5-|-(5)--7-5-(5)--5-7-|
||-----------5---|------5--------3-5-|
|
|       Gtr II
||---------------|-------------------|
||o--------------|-------------------|
||---------------|-------------------|
||---------------|-------------------|
||o--------------|-------------------|
||---------------|-------------------|


  A       B5/A  A5/E                    B5/A  A5/EC  A D
                                                          8x
|-----------------------------|---------------------------||
|-----------------------------|--------------------------o||
|-----------------------------|------------------------7--||
|-(7)-------------------------|-(7)------------------7-7--||
|-(7)-------------------------|-(7)------------------7-5-o||
|-(5)-------------------------|-(5)------------------5----||
|
|                                                         8x
|-----------------------------|---------------------------||
|-----------------------------|--------------------------o||
|--2--x-x-4-(4)S2-2-x-x-----2-|--2--x-x-4-(4)p2p0-5----7--||
|--2--x-x-4-(4)S2-2-x-x-----2-|--2--x-x-4-(4)p2p0-5--7-7--||
|--0------0-------0---------0-|--0------0---------3--7-5-o||
|-----------------------0h3---|----------------------5----||



Comments