Judas Priest - Green Manalshi Chords & Tabs

 

Green Manalshi Chords & Tabs

Judas Priest Chords & Tabs

Version: 1 Type: Tab 0 ratings
1 star 2 stars 3 stars 4 stars 5 stars
comments

Green Manalshi Tab

   
  Judas Priest
Green Manalshi 
Gtr I (E A D G B E) - 'Untitled'
Gtr II (E A D G B E) - 'Untitled'
Gtr III (E A D G B E) - 'Untitled'

 Intro
  Q=126
  E5D5E5     G5          D5     E5  D5    C5                 B5C5     D5  E5
 4/4
  Gtrs I, II
|---------------------|---------------|----------------|--------------------|
|---------------------|---------------|----------------|--------------------|
|-9-7-9--(9)-12-12-12-|--7-7-7--9-9-7-|-7-5-5--(5)---5-|-(5)-4-5--(5)-7-7-9-|
|-9-7-9--(9)-12-12-12-|--7-7-7--9-9-7-|-7-5-5--(5)---5-|-(5)-4-5--(5)-7-7-9-|
|-7-5-7--(7)-10-10-10-|--5-5-5--7-7-5-|-5-3-3--(3)---3-|-(3)-2-3--(3)-5-5-7-|
|---------------------|---------------|----------------|--------------------|


  E5 D5E5     G5                D5        E5      D5
|--------------------------|------------------------|
|--------------------------|------------------------|
|--9-7-9--(9)-12---12---12-|----7-7-7-----9---9---7-|
|--9-7-9--(9)-12---12---12-|----7-7-7-----9---9---7-|
|--7-5-7--(7)-10---10---10-|----5-5-5-----7---7---5-|
|--------------------------|------------------------|
|
| Gtr III
|--------------------------|------------------------|
|--------------------------|------------------------|
|--------------------------|------------------------|
|----------------4----5----|-/7-------(7)---5---4---|
|-/7------(7)--------------|------------------------|
|--------------------------|------------------------|


     C5                 B5C5     D5    E5
|-----------------|------------------------|
|-----------------|------------------------|
|--7-5-5--(5)---5-|-(5)-4-5--(5)-7-7---9---|
|--7-5-5--(5)---5-|-(5)-4-5--(5)-7-7---9---|
|--5-3-3--(3)---3-|-(3)-2-3--(3)-5-5---7---|
|-----------------|------------------------|
|
|-----------------|------------------------|
|-----------------|------------------8---5-|
|-----------------|----------------4-------|
|-----------------|-----------7------------|
|-/7--------------|-(7)--------------------|
|-----------------|------------------------|


  Em
  Gtr I
   |  |||||||   |  |||||||  ||||||||
   x  xxxxxxx   x  xxxxxxx  xxxxxxxx

  Gtr II
|------------|------------|---------|
|------------|------------|---------|
|------------|------------|---------|
|--2---------|-(2)--------|---------|
|--2---------|-(2)--------|---------|
|--0---------|-(0)--------|---------|
|
|  ~~~~~~~~~~~~~~~~
|------------|------------|---------|
|-(5)--------|-(5)--------|---------|
|------------|------------|---------|
|------------|------------|---------|
|------------|------------|---------|
|------------|------------|---------|


 1st Verse
  Gtrs I, II
  ||||||||  ||||||||  ||||||||
  xxxxxxxx  xxxxxxxx  xxxxxxxx

|---------|---------|---------|
|---------|---------|---------|
|---------|---------|---------|
|---------|---------|---------|
|---------|---------|---------|
|---------|---------|---------|


  Em   G A   G       A   G     Em    Em
                                     Gtrs I, II
                                     ||||||||  ||||||||
                                     xxxxxxxx  xxxxxxxx

  Gtr I
|--------------|-------------------|---------|---------|
|--------------|-------------------|---------|---------|
|--------------|-------------------|---------|---------|
|-2----5--7--5-|-(5)--7--5-(5)-2---|---------|---------|
|-2----5--7--5-|-(5)--7--5-(5)-2---|---------|---------|
|-0----3--5--3-|-(3)--5--3-(3)-0---|---------|---------|
|
| Gtr II
|--------------|-------------------|---------|---------|
|-5----8-10--8-|-(8)-10--8-(8)-5---|---------|---------|
|-4----7--9--7-|-(7)--9--7-(7)-4---|---------|---------|
|-2----5--7--5-|-(5)--7--5-(5)-2---|---------|---------|
|--------------|-------------------|---------|---------|
|--------------|-------------------|---------|---------|


  Em      G A   G       A   G     Em    G
  Gtr I
|-----------------|-------------------|------|
|-----------------|-------------------|------|
|-----------------|-------------------|------|
|-2---(2)-5--7--5-|-(5)--7--5-(5)-2---|-5----|
|-2---(2)-5--7--5-|-(5)--7--5-(5)-2---|-5----|
|-0---(0)-3--5--3-|-(3)--5--3-(3)-0---|-3----|
|
| Gtr II
|-----------------|-------------------|------|
|-5-------8-10--8-|-(8)-10--8-(8)-5---|------|
|-4-------7--9--7-|-(7)--9--7-(7)-4---|------|
|-2-------5--7--5-|-(5)--7--5-(5)-2---|-5----|
|-----------------|-------------------|-5----|
|-----------------|-------------------|-3----|


  A5         Em
  Gtrs I, II
|----------|-----------------|
|----------|-----------------|
|----------|-----------------|
|-7--------|-2-5-4-----2-----|
|-7--------|-2-----2-5-------|
|-5--------|-0-----------3-2-|


 Guitar Break
  E5D5E5       G5/D     E5 D5     E5D5E5       G5/D        D5
|----------------|--------------|----------------|--------------|
|----------------|--------------|----------------|--------------|
|-9-7-9--(9)---7-|-(7)--9--7----|-9-7-9--(9)---7-|-(7)--7--7----|
|-9-7-9--(9)---5-|-(5)--9--7----|-9-7-9--(9)---5-|-(5)--5--7----|
|-7-5-7--(7)---5-|-(5)--7--5----|-7-5-7--(7)---5-|-(5)--5--5----|
|-0--------------|--------------|----------------|--------------|


  E5D5E5       G5/D     E5 D5     E5D5E5       G5/D     D5
|----------------|--------------|----------------|--------------|
|----------------|--------------|----------------|--------------|
|-9-7-9--(9)---7-|-(7)--9--7----|-9-7-9--(9)---7-|-(7)--7--7----|
|-9-7-9--(9)---5-|-(5)--9--7----|-9-7-9--(9)---5-|-(5)--7--7----|
|-7-5-7--(7)---5-|-(5)--7--5----|-7-5-7--(7)---5-|-(5)--5--5----|
|-0--------------|--------------|----------------|--------------|


  Em
  Gtr I
  | |||||||   |  |||||||  ||||||||
  x xxxxxxx   x  xxxxxxx  xxxxxxxx

  Gtr II
|----------|------------|---------|
|----------|------------|---------|
|----------|------------|---------|
|-2--------|-(2)--------|---------|
|-2--------|-(2)--------|---------|
|-0--------|-(0)--------|---------|


 2nd Verse
  Gtrs I, II
  ||||||||  ||||||||  ||||||||
  xxxxxxxx  xxxxxxxx  xxxxxxxx

|---------|---------|---------|
|---------|---------|---------|
|---------|---------|---------|
|---------|---------|---------|
|---------|---------|---------|
|---------|---------|---------|


  Em   G A   G       A   G     Em    Em
                                     Gtrs I, II
                                     ||||||||  ||||||||
                                     xxxxxxxx  xxxxxxxx

  Gtr I
|--------------|-------------------|---------|---------|
|--------------|-------------------|---------|---------|
|--------------|-------------------|---------|---------|
|-2----5--7--5-|-(5)--7--5-(5)-2---|---------|---------|
|-2----5--7--5-|-(5)--7--5-(5)-2---|---------|---------|
|-0----3--5--3-|-(3)--5--3-(3)-0---|---------|---------|
|
| Gtr II
|--------------|-------------------|---------|---------|
|-5----8-10--8-|-(8)-10--8-(8)-5---|---------|---------|
|-4----7--9--7-|-(7)--9--7-(7)-4---|---------|---------|
|-2----5--7--5-|-(5)--7--5-(5)-2---|---------|---------|
|--------------|-------------------|---------|---------|
|--------------|-------------------|---------|---------|


  Em  G   A G   A       G   A     Em    A
  Gtr I
|-----------------|-------------------|------|
|-----------------|-------------------|------|
|-----------------|-------------------|------|
|-2---(2)-5--7--5-|-(5)--7--5-(5)-2---|-5----|
|-2---(2)-5--7--5-|-(5)--7--5-(5)-2---|-5----|
|-0---(0)-3--5--3-|-(3)--5--3-(3)-0---|-3----|
|
| Gtr II
|-----------------|-------------------|------|
|-5-------8-10--8-|-(8)-10--8-(8)-5---|------|
|-4-------7--9--7-|-(7)--9--7-(7)-4---|------|
|-2-------5--7--5-|-(5)--7--5-(5)-2---|-5----|
|-----------------|-------------------|-5----|
|-----------------|-------------------|-3----|


  A5         Em
  Gtrs I, II
|----------|-----------------|
|----------|-----------------|
|----------|-----------------|
|-7--------|-2-5-4-----2-----|
|-7--------|-2-----2-5-------|
|-5--------|-0-----------3-2-|


 Guitar Break
  E5D5E5       G5/D     E5 D5     E5D5E5       G5/D        D5
|----------------|--------------|----------------|--------------|
|----------------|--------------|----------------|--------------|
|-9-7-9--(9)---7-|-(7)--9--7----|-9-7-9--(9)---7-|-(7)--7--7----|
|-9-7-9--(9)---5-|-(5)--9--7----|-9-7-9--(9)---5-|-(5)--5--7----|
|-7-5-7--(7)---5-|-(5)--7--5----|-7-5-7--(7)---5-|-(5)--5--5----|
|-0--------------|--------------|----------------|--------------|


  E5D5E5       G5/D     E5 D5     E5D5E5       G5/D     D5   A5/E
                                                  2/4       4/4
|----------------|--------------|----------------|---------|----------||
|----------------|--------------|----------------|---------|----------||
|-9-7-9--(9)---7-|-(7)--9--7----|-9-7-9--(9)---7-|-(7)--7--|-9--------||
|-9-7-9--(9)---5-|-(5)--9--7----|-9-7-9--(9)---5-|-(5)--7--|-7--------||
|-7-5-7--(7)---5-|-(5)--7--5----|-7-5-7--(7)---5-|-(5)--5--|-7--------||
|-0--------------|--------------|----------------|---------|----------||


 Guitar Solo
  E5  D5E5       G5                    D5      E5  D5
  Gtr III
                                           ~
|--------------------------------|-------------------|
|--------------------------------|-------------------|
|-2b4---2b4--(2)--2b4--2b4--2b4==|=(2)r2-2-2-2-----2-|
|--------------------------------|-------------------|
|--------------------------------|-------------------|
|--------------------------------|-------------------|
|
| Gtrs I, II
|--------------------------------|-------------------|
|--------------------------------|-------------------|
|-9---7-9----(9)-12---12---12----|-----7-7-7---9-9-7-|
|-9---7-9----(9)-12---12---12----|-----7-7-7---9-9-7-|
|-7---5-7----(7)-10---10---10----|-----5-5-5---7-7-5-|
|--------------------------------|-------------------|


    C5                     B5 C5                  D5       E5
        ~                                          ~~
|-------------------|------12-12--------------12--------------|
|-------------------|-/12--------h15--------------15-15b17----|
|-2p0-0h2-----------|----------------14-14b16-----------------|
|---------2-(2)-----|-----------------------------------------|
|-------------------|-----------------------------------------|
|-------------------|-----------------------------------------|
|
|-------------------|-----------------------------------------|
|-------------------|-----------------------------------------|
|-7-5-5-----(5)---5-|--(5)--4--5--------------(5)--7--7----9--|
|-7-5-5-----(5)---5-|--(5)--4--5--------------(5)--7--7----9--|
|-5-3-3-----(3)---3-|--(3)--2--3--------------(3)--5--5----7--|
|-------------------|-----------------------------------------|

[ Tab from: http://www.guitartabs.cc/tabs/j/judas_priest/green_manalshi_tab.html ]
  E5    D5E5         G5               D5                 E5          D5
|-----------------------------|-12-14---15-15b17====(15)---(15)-(15)r==15-|
|-15b17---15b17---------------|-------------------------------------------|
|-----------------------------|-------------------------------------------|
|-----------------------------|-------------------------------------------|
|-----------------------------|-------------------------------------------|
|-----------------------------|-------------------------------------------|
|
|-----------------------------|-------------------------------------------|
|-----------------------------|-------------------------------------------|
|--9----7--9-----(9)-12-12-12-|-------7-----7-----7------9---9-------7----|
|--9----7--9-----(9)-12-12-12-|-------7-----7-----7------9---9-------7----|
|--7----5--7-----(7)-10-10-10-|-------5-----5-----5------7---7-------5----|
|-----------------------------|-------------------------------------------|


        C5                                          B5    C5        D5           E5
                                                                                  ~~~
|-12-15----------12------------------------|-------------------------------------------|
|-------15b17--------15p12--------12h15p12-|-----12------------------------------------|
|--------------------------h14-14----------|-14-----14b16----12------------------13\---|
|------------------------------------------|---------------------14p12-----12h14-------|
|------------------------------------------|---------------------------h14-------------|
|------------------------------------------|-------------------------------------------|
|
|------------------------------------------|-------------------------------------------|
|------------------------------------------|-------------------------------------------|
|--7-----5----5--(5)------------------5----|-(5)-----4----5--(5)-----7------7-----9----|
|--7-----5----5--(5)------------------5----|-(5)-----4----5--(5)-----7------7-----9----|
|--5-----3----3--(3)------------------3----|-(3)-----2----3--(3)-----5------5-----7----|
|------------------------------------------|-------------------------------------------|


  E5 D5 E5        G5            D5          E5    D5
|--------------------------|-------------------------|
|--------------------------|-------------------------|
|--------------------------|-------------------------|
|--------------------------|----------------10-12p10-|
|--------------------------|-------10-12s14----------|
|-10s12-10s12-10s=12-10s12-|-10s12-------------------|
|
|--------------------------|-------------------------|
|--------------------------|-------------------------|
|--9--7--9----(9)-12-12-12-|-----7--7--7-----9--9--7-|
|--9--7--9----(9)-12-12-12-|-----7--7--7-----9--9--7-|
|--7--5--7----(7)-10-10-10-|-----5--5--5-----7--7--5-|
|--------------------------|-------------------------|


     C5                         B5 C5             D5         E5
         ~~~                                       ~~
|------------------------|---------------------------------------|
|------------------------|------15-------------------------------|
|-12-11------------14b16-|-(14)----14-12-14b16-14-12-------------|
|-------14\--------------|---------------------------14-(14)-----|
|------------------------|---------------------------------------|
|------------------------|---------------------------------------|
|
|------------------------|---------------------------------------|
|------------------------|---------------------------------------|
|--7--5--5---(5)----5----|--(5)--4--5----(5)-------7------7--9---|
|--7--5--5---(5)----5----|--(5)--4--5----(5)-------7------7--9---|
|--5--3--3---(3)----3----|--(3)--2--3----(3)-------5------5--7---|
|------------------------|---------------------------------------|


  E5    D5    E5                 G5                        D5                      E5          D5
                                                                                                ~~~
|-10s12-12-12-10s12-12-12-10s=12-12-12-10s12-12-12-|-10s12-15p12-15p12----------------------------|
|--------------------------------------------------|-------------------15p12-15p12----------------|
|--------------------------------------------------|-------------------------------14p12-14p12----|
|--------------------------------------------------|-------------------------------------------14-|
|--------------------------------------------------|----------------------------------------------|
|--------------------------------------------------|----------------------------------------------|
|
|--------------------------------------------------|----------------------------------------------|
|--------------------------------------------------|----------------------------------------------|
|--9-----7-----9----------(9)----12----12----12----|--------7-----7-----7-----------9-----9-----7-|
|--9-----7-----9----------(9)----12----12----12----|--------7-----7-----7-----------9-----9-----7-|
|--7-----5-----7----------(7)----10----10----10----|--------5-----5-----5-----------7-----7-----5-|
|--------------------------------------------------|----------------------------------------------|


       C5                   E5 B5 C5        D5    E5
 ~~~~~~
|-------------------------|--------------------------|
|-------------------------|--------------------------|
|----------------12-12----|-12-12--------------------|
|-(14)------(14)-------14-|-------14-12-14-----------|
|-------------------------|-----------------12-14----|
|-------------------------|-----------------------15-|
|
|-------------------------|--------------------------|
|-------------------------|--------------------------|
|---7--5-5---(5)--------5-|--9--4--5----(5)--7--7--9-|
|---7--5-5---(5)--------5-|--9--4--5----(5)--7--7--9-|
|---5--3-3---(3)--------3-|--7--2--3----(3)--5--5--7-|
|-------------------------|--------------------------|


  Em
  Gtr I
   | |||||||    |  |||||||  ||||||||
   x xxxxxxx    x  xxxxxxx  xxxxxxxx

  Gtr II
|-----------|-------------|---------|
|-----------|-------------|---------|
|-----------|-------------|---------|
|--2--------|--(2)--------|---------|
|--2--------|--(2)--------|---------|
|--0--------|--(0)--------|---------|
|
| Gtr III
|  ~~
|-----------|-------------|---------|
|-----------|-------------|---------|
|-----------|-------------|---------|
|-----------|-------------|---------|
|-----------|-------------|---------|
|-12--------|-(12)--------|---------|


 3rdVerse
  Gtrs I, II
  ||||||||  ||||||||  ||||||||
  xxxxxxxx  xxxxxxxx  xxxxxxxx

|---------|---------|---------|
|---------|---------|---------|
|---------|---------|---------|
|---------|---------|---------|
|---------|---------|---------|
|---------|---------|---------|


  Em   G A   G       A   G     Em    Em
                                   Gtrs I, II
                                     ||||||||  ||||||||
                                     xxxxxxxx  xxxxxxxx

  Gtr I
|--------------|-------------------|---------|---------|
|--------------|-------------------|---------|---------|
|--------------|-------------------|---------|---------|
|-2----5--7--5-|-(5)--7--5-(5)-2---|---------|---------|
|-2----5--7--5-|-(5)--7--5-(5)-2---|---------|---------|
|-0----3--5--3-|-(3)--5--3-(3)-0---|---------|---------|
|
| Gtr II
|--------------|-------------------|---------|---------|
|-5----8-10--8-|-(8)-10--8-(8)-5---|---------|---------|
|-4----7--9--7-|-(7)--9--7-(7)-4---|---------|---------|
|-2----5--7--5-|-(5)--7--5-(5)-2---|---------|---------|
|--------------|-------------------|---------|---------|
|--------------|-------------------|---------|---------|


  Em      G A   G       A   G     Em    G
  Gtr I
|-----------------|-------------------|------|
|-----------------|-------------------|------|
|-----------------|-------------------|------|
|-2---(2)-5--7--5-|-(5)--7--5-(5)-2---|-5----|
|-2---(2)-5--7--5-|-(5)--7--5-(5)-2---|-5----|
|-0---(0)-3--5--3-|-(3)--5--3-(3)-0---|-3----|
|
| Gtr II
|-----------------|-------------------|------|
|-5-------8-10--8-|-(8)-10--8-(8)-5---|------|
|-4-------7--9--7-|-(7)--9--7-(7)-4---|------|
|-2-------5--7--5-|-(5)--7--5-(5)-2---|-5----|
|-----------------|-------------------|-5----|
|-----------------|-------------------|-3----|


  A          Em
  Gtrs I, II
|----------|-----------------|
|----------|-----------------|
|----------|-----------------|
|-7--------|-2-5-4-----2-----|
|-7--------|-2-----2-5-------|
|-5--------|-0-----------3-2-|


   Outro
    E5 D5E5     G5                D5        E5      D5
    Gtr III
||---------------------------|------------------------|
||o--------------------------|------------------------|
||---------------------------|------------------------|
||-----------------4----5----|-/7-------(7)---5---4---|
||o-/7------(7)--------------|------------------------|
||---------------------------|------------------------|
|
|   Gtrs I, II
||---------------------------|------------------------|
||o--------------------------|------------------------|
||---9-7-9--(9)-12---12---12-|----7-7-7-----9---9---7-|
||---9-7-9--(9)-12---12---12-|----7-7-7-----9---9---7-|
||o--7-5-7--(7)-10---10---10-|----5-5-5-----7---7---5-|
||---------------------------|------------------------|


    C5                 B5C5     D5  E5
|----------------|---------------------|
|----------------|---------------------|
|----------------|---------------------|
|----------------|---------------------|
|-7--------------|-(7)-----------------|
|----------------|---------------------|
|
|----------------|---------------------|
|----------------|---------------------|
|-7-5-5--(5)---5-|-(5)-4-5--(5)-7-7-9--|
|-7-5-5--(5)---5-|-(5)-4-5--(5)-7-7-9--|
|-5-3-3--(3)---3-|-(3)-2-3--(3)-5-5-7--|
|----------------|---------------------|


  E5D5E5     G5                D5        E5      D5
|-------------------------|------------------------|
|-------------------------|--------------------8---|
|-------------------------|----------------4-------|
|---------------4----5----|-/7-------(7)-----------|
|-7------(7)--------------|------------------------|
|-------------------------|------------------------|
|
|-------------------------|------------------------|
|-------------------------|------------------------|
|-9-7-9--(9)-12---12---12-|----7-7-7-----9---9---7-|
|-9-7-9--(9)-12---12---12-|----7-7-7-----9---9---7-|
|-7-5-7--(7)-10---10---10-|----5-5-5-----7---7---5-|
|-------------------------|------------------------|


    C5                 B5C5     D5  E5
|----------------|---------------------||
|-5--------------|-(5)----------------o||
|----------------|---------------------||
|----------------|---------------------||
|----------------|--------------------o||
|----------------|---------------------||
|
|----------------|---------------------||
|----------------|--------------------o||
|-7-5-5--(5)---5-|-(5)-4-5--(5)-7-7-9--||
|-7-5-5--(5)---5-|-(5)-4-5--(5)-7-7-9--||
|-5-3-3--(3)---3-|-(3)-2-3--(3)-5-5-7-o||
|----------------|---------------------||


  N.C.
  Gtr III
|-----------------|-----------------|----------*|
|-----------------|-----------------|----------*|
|-----------------|-----------------|----------*|
|---5-4-----2-----|-------------5-4-|-2--------*|
|-------2-5---2-5-|-3-2-------2-----|----------*|
|-0---------------|-----0-2-3-------|----------*|



Comments